Song name
# A B C D E F G H I J K L M N O P Q R S T U V W X Y Z

Misc Unsigned Bands - Andrew Landon - Dear Polly Garcia tab

E----10---10----10---10----10---10----10--10-----10---10--10---10-----|
B------10---------10---------10---------10---------10-------10--------|
G-----------0---------0----------0----------0-----------0--------0----|
D---------------------------------------------------------------------|
A----10-10------9---9-------7---7-------------------------------------|
E-------------------------------------10-10------8---8----8---8-------|

----10----10---10----10----|
------10---------10--------|
------------0----------0---| repeat until
---------------------------|
---------------------------|
----10---10----10----------|

----3-3---3-3---3-3---3-2---|
-----3-3---3-3---3-3---3-3--|
----------------------------|
----------------------0-----|
----------2-----3-----------|
----3-----------------------|


i now have an assignment for you to figure out the ending.
because i'm too lazy to tab the rest out.
it's pretty easy.
don't fail me.
Tap to rate this tab
# A B C D E F G H I J K L M N O P Q R S T U V W X Y Z