Song name
# A B C D E F G H I J K L M N O P Q R S T U V W X Y Z

Misc Unsigned Bands - Snotkop - Ek Wens tab

Help us improve GuitareTab! Take a short survey!
                               Ek Wens-Snotkop
-----------------------------------------------------------------------------
Tabbed by:Vladimir
Tuning: D A D G B E

00:30
 D|-2-2-2--------------|
 A|-2-2-2--------------|
 D|-2-2-2--------------|
 G|--------------------|
 B|--------------------|
 E|--------------------|

00:39
 D|-2-2-2-2-2-2-2-2-2-2-2-2-2-2-2-2-2-2-2-2-2\7-7-7-7-7-7-7-|
 A|-2-2-2-2-2-2-2-2-2-2-2-2-2-2-2-2-2-2-2-2-2\7-7-7-7-7-7-7-|
 D|-2-2-2-2-2-2-2-2-2-2-2-2-2-2-2-2-2-2-2-2-2\7-7-7-7-7-7-7-|
 G|---------------------------------------------------------|
 B|---------------------------------------------------------|
 E|---------------------------------------------------------|

Chorus
01:19
 D|-2-2-2-2-2-2-2-2---------------------------------7-7-7-7-7-7-7-7-|
 A|-2-2-2-2-2-2-2-2-3-3-3-3-3-3-3-3-5-5-5-5-5-5-5-5-7-7-7-7-7-7-7-7-|
 D|-2-2-2-2-2-2-2-2-5-5-5-5-5-5-5-5-7-7-7-7-7-7-7-7-7-7-7-7-7-7-7-7-|
 G|-----------------------------------------------------------------|
 B|-----------------------------------------------------------------|
 E|-----------------------------------------------------------------|

 D|-2-2-2-2-2-2-2-2---------------------------------7-7-7-7-9-9-9-9-|
 A|-2-2-2-2-2-2-2-2-3-3-3-3-3-3-3-3-5-5-5-5-5-5-5-5-7-7-7-7-9-9-9-9-|
 D|-2-2-2-2-2-2-2-2-5-5-5-5-5-5-5-5-7-7-7-7-7-7-7-7-7-7-7-7-9-9-9-9-|
 G|-----------------------------------------------------------------|
 B|-----------------------------------------------------------------|
 E|-----------------------------------------------------------------|
 
01:58
 D|-2-2-2-2-2\5-2-2-2-2-2\7-2-2-2-2-2\9----9-7-5-4-|
 A|-2-2-2-2-2\5-2-2-2-2-2\7-2-2-2-2-2\9----9-7-5-4-|
 D|-2-2-2-2-2\5-2-2-2-2-2\7-2-2-2-2-2\9----9-7-5-4-| x 2
 G|------------------------------------------------|
 B|------------------------------------------------|
 E|------------------------------------------------|

02:08 Chorus

02:28
 D|---------------------------------|
 A|---------------------------------|
 D|---------------------------------|
 G|-99-99-99-99-9-9-99-99-99-99-9-9-|
 B|---------------------------------|
 E|---------------------------------|

02:34
 D|-99-99-99-99-9-9-99-99-99-99-9-9-99-99-99-99-9-9-99-|
 A|-99-99-99-99-9-9-99-99-99-99-9-9-99-99-99-99-9-9-99-|
 D|-99-99-99-99-9-9-99-99-99-99-9-9-99-99-99-99-9-9-99-|
 G|----------------------------------------------------|
 B|----------------------------------------------------|
 E|----------------------------------------------------|

02:44 Chorus x2

03:23
 D|----------------------------------------------------|
 A|----------------------------------------------------|
 D|----------------------------------------------------|
 G|-99-99-99-99-9-9-99-99-99-99-9-9-99-99-99-99-9-9-99-|
 B|----------------------------------------------------|
 E|----------------------------------------------------|

 The end
Related for Snotkop - Ek Wens tab