Song name
# A B C D E F G H I J K L M N O P Q R S T U V W X Y Z

Misc Unsigned Bands - Crash - Running Toward A Bullet tab

RUNNING TOWARD A BULLET
played in the key of: D
By: Crash

INTRO
  D        C          A A  G G D
e-------------------|-----------------|
b-----8--------6----|------3-3-3------|
g-7-x-7-7~-5-x-5-5~-|-2-2--0-0-2------|2x
d-7-x-7-7~-5-x-5-5~-|-2-2--0-0-0------|
a-------------------|-0-0--x-x-0------|
E-------------------|------3-3--------|

VERSE
  D        C          G  G  A  D D GG# E A
e-------------------|----------------------|
b-----8--------6----|----------3-3---------|
g-7-x-7-7~-5-x-5-5~-|-------2--2-2-------2-|4x
d-7-x-7-7~-5-x-5-5~-|-5--5--2--0-0-------2-|
a-------------------|-5--5--0--0-0-------0-|
E-------------------|-3--3---------3b4p0---|

PRE-CHORUS
  G G G G G G G G G D D D D D D D D
e----------------------------------------|
b-----------------0-3-3-3-3-3-3-3-3------|
g-----------------0-2-2-2-2-2-2-2-2------|
d-5-5-5-5-5-5-5-5-0-0-0-0-0-0-0-0-0------|
a-5-5-5-5-5-5-5-5---0-0-0-0-0-0-0-0------|
E-3-3-3-3-3-3-3-3------------------------|

CHORUS
  D    C  A D5 G  D
e------------------------|
b--------------3--3------|
g-7----5--2-2--0--2------|3x
d-7----5--2-0--0--0------|
a-5----3--0-0--x--0------|
E--------------3---------|

then
  D      C  A D5 D5 G        G     G     G     G
|-------------------------|-----|-----|-----|-----|
|----------------3--3-----|-----|-----|-----|-----|
|-7------5--2-2--2--0-----|-----|-----|-----|-----|
|-7------5--2-0--0--0-----|-----|-----|-----|-----|
|-5------3--0-0--0--x-----|-----|-----|-----|-----|
|-------------------3-----|-----|-----|-----|-----|

REPEAT:

verse (2x)
pre-chorus
whole chorus

Then head to bridge

BRIDGE

  C  C C D5   C C D5    G G D5 G G D5
e-----------|-----------3-3----3-3---------|
b--------3--|-----3-----3-3-3--3-3-3-------|
g-5--5-5-2--|-5-5-2-----0-0-2--0-0-2-------|4x
d-5--5-5-0--|-5-5-0-----0-0-0--0-0-0-------|
a-3--3-3-0--|-3-3-0-----x-x-0--x-x-0-------|
E-----------|-----------3-3----3-3---------|

SOLO
        ^     ^^ ^                            ^^          
e-------------3-------------------------------5---------------------------=
b-5b7r5---5~~--6-3-------------------6b8-6b8~--8-5~-----------------------=
g-5b7r5-3-5~~-----5-3-------------------------------7-5-8p7p5-------------=
d--------------------5~-/7~~~-x<~~~~-------------------------7~-5--7------=
a-----------------------------x<~~~~---------------------------------5~~~-=
E-------------------------------------------------------------------------=
                      
  ^ ^ ^                                   
=-----------------------12-----------------------------------------=
=----------------14b16~====14b16~-14b15r14-----------15b16-12------=
=---------------------------------14b15r14-14-12-14~----------14~--=
=-7-5-7------------------------------------------------------------=
=-------5~-/7~~----------------------------------------------------=
=------------------------------------------------------------------=

=--------------------------------------------5------------------|
=--------------------------------------8b10~--8-5---------------|
=------------------------------------------------7-5-7----------|
=--7b8-5-5~-7b8-5-5~-7b8-5-5~-7b8-5-5~-----------------7p5------|
=----------------------------------------------------------7~~\-|
=---------------------------------------------------------------|

REPEAT:
Chorus 3x
then do outro

OUTRO
  D         C         A    A~~~ D       G           A
e-----------------------------------------------------------------------|
b-------------------------------3-------3-------------------------------|
g-7---------5---------2----2~~~-2-------0-----------2222222222222222222-|
d-7---------5---------2---------0-------0-----------2222222222222222222-|
a-5---------3---------0---------0-------x-----------0000000000000000000-|
E-------------------------------2-------3-------------------------------|

     A     A     A     A     A
=-|-----|-----|-----|-----|-----|
=-|-----|-----|-----|-----|-----|
=-|-----|-----|-----|-----|--2--|
=-|-----|-----|-----|-----|--2--|
=-|-----|-----|-----|-----|--0--|
=-|-----|-----|-----|-----|-----|
Tap to rate this tab
 
# A B C D E F G H I J K L M N O P Q R S T U V W X Y Z