Song name
# A B C D E F G H I J K L M N O P Q R S T U V W X Y Z

Misc Unsigned Bands - Underaged Limit - Dont Look Down tab

This is a song named Don't Look Down by Underaged Limit.

~=Vibrato
h=Hammer on
P=Pull of
/=Slide
B=Bend


It's 1,2,3,1,2,3,1,2,3


Intro

Lead Guitar

-------------------------------------------------|
-------------------------------------------------|
-------5-----------6-----------1-----------3-----|
-----6---6-------7---7-------2---2-------4---4---|  x 8
---6-------6---7-------7---2-------2---4-------4-|
-4-----------5-----------0-----------2-----------|

After 2 times the second guitar and the drums comes in.

Second guitar

-------------------------------------------------|
-------------------------------------------------|
-------------------------------------------------|
-6-6-6-6-6-6-7-7-7-7-7-7-2-2-2-2-2-2-4-4-4-4-4-4-|  x 8(Same thing hole song)
-6-6-6-6-6-6-7-7-7-7-7-7-2-2-2-2-2-2-4-4-4-4-4-4-|
-4-4-4-4-4-4-5-5-5-5-4-5-0-0-0-0-0-0-2-2-2-2-0-2-|

After the Lead Guitar has played the first thing 8 times he play.

Lead Guitar

----------------------------------------------------|
-~9-----9-7-9/~10-10-9h10p9------------9------------|
----------------------------~9-----9-9--~11-11p9h11-|
----------------------------------------------------|  x 2
----------------------------------------------------|
----------------------------------------------------|

Both the guitars

Ref:

-------------------------------------------------|
-------------------------------------------------|
-------------------------------------------------|
-6-6-6-6-6-6-7-7-7-7-7-7-2-2-2-2-2-2-4-4-4-4-4-4-|  x 4
-6-6-6-6-6-6-7-7-7-7-7-7-2-2-2-2-2-2-4-4-4-4-4-4-|
-4-4-4-4-4-4-5-5-5-5-4-5-0-0-0-0-0-0-2-2-2-2-0-2-|

Lead Guitar

-------------------------------------------------|
-------------------------------------------------|
-------5-----------6-----------1-----------3-----|
-----6---6-------7---7-------2---2-------4---4---|  x 4
---6-------6---7-------7---2-------2---4-------4-|
-4-----------5-----------0-----------2-----------|

----------------------------------------------------|
-~9-----9-7-9/~10-10-9h10p9------------9------------|
----------------------------~9-----9-9--~11-11p9h11-|
----------------------------------------------------|  x 2
----------------------------------------------------|
----------------------------------------------------|

Both the guitars

Ref:

-------------------------------------------------|
-------------------------------------------------|
-------------------------------------------------|
-6-6-6-6-6-6-7-7-7-7-7-7-2-2-2-2-2-2-4-4-4-4-4-4-|  x 10
-6-6-6-6-6-6-7-7-7-7-7-7-2-2-2-2-2-2-4-4-4-4-4-4-|
-4-4-4-4-4-4-5-5-5-5-4-5-0-0-0-0-0-0-2-2-2-2-0-2-|
Tap to rate this tab
# A B C D E F G H I J K L M N O P Q R S T U V W X Y Z