Song name
# A B C D E F G H I J K L M N O P Q R S T U V W X Y Z

Misc Unsigned Bands - Dying Thoughts - Magick Without Tears tab

-------------------------------------------------------------------------------
	           Magick Without Tears - Audio Journey
-------------------------------------------------------------------------------
Tabbed by: Tyler Lemons
Email:Tylerlemons47@yahoo.com

Tuning: Drop D


Verse:
e|-------------------------------------------------------------------------------|
B|-------------------------------------------------------------------------------|
G|-------------------------------------------------------------------------------|
D|---2---2---2---2---2---2---2-----2---2----2----2---2----2----------------------|
A|---3---3---3---3---3---3---3-----2---2----2----2---2----2----------------------|
E|-------------------------------------------------------------------------------|

CHORUS:
e|----3----------------------3-----------------------------------------------|
B|----3-------1--------------3-----------------------------------------------|
G|--------------------1------------------------------------------------------|
D|------------2-------2------------------------------------------------------|
A|----2-------3-------2------2-----------------------------------------------|
E|----3----------------------3-----------------------------------------------|

Bridge:
e|---------------------------------------7-----------------------------------------|
B|---------------7~------------------7~--------------------------------------------|
G|----------9-------------------9--------------------------------------------------|
D|-------9------------------9------------------------------------------------------|
A|----7----------------7-----------------------------------------------------------|
E|---------------------------------------------------------------------------------|

e|-----------------------------------------------------------------------------|
B|-----------------------------------------------------------------------------|
G|-----------------------------------------------------------------------------|
D|-----9----9x----------7----7x------------------------------------------------|
A|-----7----7x----------5----5x------------------------------------------------|
E|-----------------------------------------------------------------------------|

Outro:
e|-----------------------------------------------------------------------------|
B|-----------------------------------------------------------------------------|
G|-----------------------------------------------------------------------------|
D|---12----12-----12-----------------------------------------------------------|
A|---12----12-----12-----------------------------------------------------------|
E|---10----10-----10-----------------------------------------------------------|



| /  slide up
| \  slide down
| h  hammer-on
| p  pull-off
| ~  vibrato
| +  harmonic
| x  Mute note
===============================================================================
Tap to rate this tab
# A B C D E F G H I J K L M N O P Q R S T U V W X Y Z