Song name
# A B C D E F G H I J K L M N O P Q R S T U V W X Y Z

Misc Unsigned Bands - Intense Death - Brutal Genocide tab

Sandard tuning

this is the greatest song in the universe
Enjoy
Tempo At live shows: 210 recorded demos: 160

Intro/riff/verse/chorus/bridge
------------------------------------------|
------------------------------------------|
------------------------------------------|
---9---8-8----8---7-7----7---6-6----------|
-----7----------6----------5--------5-5h7-|
-0----------0----------0----------0-------|
Repeat 50 times

Solo
1--------------------------1----------------------------------------|
-2b----------------------2b-----------------------------------------|
---3s22--------------22s3-------------------------------------------|
-------21----------21-----------------------------------------------|
----------19-----19-------------------22s1-1s22-22s1-1s22-22s1-1s22-|
------------21-21------------18h21p11-------------------------------|

-22s12-------21s11-------20s10----------------------------21h22-|
-------------------------------------------------------1p0------|
--------------------------------------------------14p12---------|
---------------------------------------------21s17--------------|
------------------------------------------6p3-------------------|
-------12s22-------11s21-------10s20-12h14----------------------|

22p21-------------------------1---|Whammy
-----0h1----------------------5---|Bar
--------12h14-----------------7---|And
-------------17s21------------8---|Metal
------------------3h6---------12--|Muff
---------------------14p12----15--|Pedal


Lyrics ( death grunt )
verses
kill, kill, kill, kill, die
chorus
it is your time to go along with everyone!
bridge
time to go down, down, down,
Tap to rate this tab
 
# A B C D E F G H I J K L M N O P Q R S T U V W X Y Z