Song name
# A B C D E F G H I J K L M N O P Q R S T U V W X Y Z

Misc Unsigned Bands - On Frail Wings - Life On Venus tab

Tabbed by:Zane
Email:
this is the song life on venus i havent put up the solo or intro yet but i will work on 
sometime
Tuning:1 step down

VERSES, play with a strumming pattern like down 5 times then up 1 time
e|-------------------------------------------------------------------------|
B|-------------------------------------------------------------------------|
G|-------------------------------------------------------------------------|
D|-9-x16--6-x16-12-x16-----------------------------------------------------|
A|-7------4-----10---------------------------------------------------------|
E|-5------2------8---------------------------------------------------------|

Chorus play with the same strumming pattern as the verses
e|--x-----------7-----9----------------------------------------------------|
B|--9-----------7-----9----------------------------------------------------|
G|--x-x16-7-x16-7-x16-7-x16------------------------------------------------|
D|--7-----7-----5-----7----------------------------------------------------|
A|--x-----5-----5-----5----------------------------------------------------|
E|--5-----5-----5-----5----------------------------------------------------|

panatonic run
e|-----------------------------------------------7-9-10--------------------|
B|---------------------------------7-10-----7-10---------------------------|
G|---------------------7-9-----7-9------7-9--------------------------------|
D|---------7-9-----7-9-----7-9---------------------------------------------|
A|-----7-9-----7-9---------------------------------------------------------|
E|-7-10--------------------------------------------------------------------|

k i'll have the rest of this tab on here in a few more days
Tap to rate this tab
 
# A B C D E F G H I J K L M N O P Q R S T U V W X Y Z