Song name
# A B C D E F G H I J K L M N O P Q R S T U V W X Y Z

Misc Unsigned Bands - On Frail Wings - One Of Blood tab

Thi is a solo that is made only by tapping, its kinda hard at first but it gets easy 
awile, every 1 of the runs is played 12 times and all the bars are played 2 times

e|---------------------------------------------------------------|
B|---------------------------------------------------------------|
G|-------------12-9-7-x12----------------------------------------|
D|-12-9-7-x 12------------12-9-7-x12------------x2---------------|
A|-----------------------------------12-9-7-x12------------------|
E|---------------------------------------------------------------|

e|-12-10-7--x12--14-12-9--x12--10-8-5--x12--8-6-3--x12--x2------------|
B|--------------------------------------------------------------------|
G|--------------------------------------------------------------------|
D|--------------------------------------------------------------------|
A|--------------------------------------------------------------------|
E|--------------------------------------------------------------------|
Tap to rate this tab
# A B C D E F G H I J K L M N O P Q R S T U V W X Y Z