Song name
# A B C D E F G H I J K L M N O P Q R S T U V W X Y Z

Misc Unsigned Bands - Three Steel Saints - Ripping Blades tab

    this was extreamly hard to do, so if i make a tiny mistake dont get too pissed at me.
    its droped d tuning, and extreamly fuckin fast.
  
song order
intro
verse
chorus
verse
pre-solo bridge
solo
chant note
chorus
pause
bladed verse
chorus x2
outro 1
pause
pre-solo bridge
outro 2


intro
|----------------------------------------------|
|-----------------------7-8-7------------------|
|-----------3-2-0-2/7-8-------8-7-5-7-5-7/8-7--| x2
|-------0-1------------------------------------|
|---0-1----------------------------------------|
|-0--------------------------------------------|

take a 10 second break before first chorus

chorus

these are all 32nd notes except for the chord riping                 
|--------------------------------------------------------------|
|--------------------------------------------------------5-5-5-|
|--------------------------------------------------------6-6-6-|  x4
|--------0-0-------0-0-------0-0--------------0--2--3/5--6-7-6-|
|--------0-0-------0-0-------0-0--------------0--2--3/5--------|
|-000000000000000000000000000000000000000000000--2--3/5--------|
 
       let the last chord ring and add a little whamy bar.

verse

palm mute the d string riff
|----------------------------------||---------------0-0-0-0-0----------------|
|----------------------------------||---------------0-0-0-0-0----------------|
|----------------------------------||---------------0-0-0-0-0--12-10-9-10-9--|
|----------------------------------||---------------2-3-2-0-2----------------| 
|----------------------------------||---------------2-3-2-0-2----------------|
|-00300303003003030030030353232323-||-2222222222222-2-3-2-0-2----------------|
 play this twice                      gradualy let
                                       these get 
                                      louder (2)s


pre-solo bridge (triplets)

|-17-13-10-|-18-13-10-|-20-13-10-|-18-13-10-|
|----------|----------|----------|----------|
|----------|----------|----------|----------|   x2
|----------|----------|----------|----------|
|----------|----------|----------|----------|
|----------|----------|----------|----------|
     x4         x2          x2        x4

solo    32nd notes

|-2-4-5b-----0-2b-7-5-4-7-8-7-4/16\4-9-7-4-2-4-5-4-7-5-4-3\2/4-0-7-7-7-8-9-|
|--------5-3---------------------------------------------------------------|
|--------------------------------------------------------------------------|
|--------------------------------------------------------------------------|
|--------------------------------------------------------------------------|
|--------------------------------------------------------------------------|

solo   continue


|-12-10-9-8-6-5-4-------------0---0---0000---pick scratch high, then low---|
|-----------------2-3-0----------------------------------------------------|
|-----------------------2-1------------------------------------------------|
|---------------------------2---3---5--------------------------------------|
|--------------------------------------------------------------------------|
|--------------------------------------------------------------------------|

solo   continue                      note 24 is over first pickup
  harmonics-----------------
|-12-------------20-------24-17-17-17-17-17-17/----------------------------|
|-12-12----12----20-------24-----------------------------------------------|
|----12----------20-------24-----------------------------------------------|
|-------------12----20-----------------------------------------------------|
|----------------------20--------------------------------------------------|
|-------12--------------------------------------0-3-0-2-0-5-5-5-5-5-5555---|


chant note is the open bottom d in this pattern
V^V^V^V^V  V  V  V^V^V  V  V   x16



bladed verse     32nd notes
                                 x4
|--------------------------------------------------------------------------|
|--------------------------------------------------------------------------|
|--------------------------------------------------------------------------|
|--------------------------------------------------------------------------|
|--------------------------------------------------------------------------|
|-003500350035753500350035003575357755335753575357075530503573503500000000-|

outro 1

|-4-5-5-4---------------|
|-5-5-5-5-5-7-5-8-9-2-0-|
|-6-6-6-6---------------|    x8
|-6-7-7-6---------------|
|-----------------------|
|-----------------------|

outro 2

|-10-5-----------------|
|------3---------------|
|--------2-------------|
|----------0-----------|
|------------3---------|
|--------------0---000-|
Tap to rate this tab
# A B C D E F G H I J K L M N O P Q R S T U V W X Y Z