Song name
# A B C D E F G H I J K L M N O P Q R S T U V W X Y Z

Misc Unsigned Bands - Vaguely Full Car Park - Immature tab

Help us improve GuitareTab! Take a short survey!
THIS TAB IS NOT WRONG, I SHOULD KNOW I WROTE THE BLOODY SONG!!!!!



/ - Slide
h - Hammer on
p - Pull Off
. - Palm Mute
~ - Vibrato

Intro Guitar 1 - Distorted

|---------------------------------------------------------|
|-------------------------------- First Time Only---------|
|--9--9-9--13/11-11-11/13--9--9-9--[13--11--9]------------|
|----------------------------------[---------]------------|
|--7--7-7--11/9--9--9-/11--7--7-7--[11--9---7]------------|
|---------------------------------=-----------------------|


Intro Guitar 2 (Also Chorus For Both Guitars)

Listen For Strum Pattern
|-------------------------------------------------------|
|-------------------------------------------------------|
|--9----------------------------------------------------|
|--9--9--11--7------------------------------------------|
|--7--9--11--7-----------------Repeat X2----------------|
|-----7--9---5------------------------------------------|


Verse - Off-Beat Ska Strumming
|-----7-7-7-7-----7-7-7-7-----5-5-5-5-5-5-5-5------------------|
|-----7-7-7-7-----7-7-7-7-----5-5-5-5-5-5-5-5------------------|
|-----9-9-9-9-----8-8-8-8-----6-6-6-6-6-6-6-6------------------|
|-----9-9-9-9-----9-9-9-9-----7-7-7-7-7-7-7-7------------------|
|--7-----------------------------------------------------------|
|--------------7-----------5-----------------------------------|


Chorus (Same As Guitar 2 Intro But Both Guitars And Distorted)

Verse 

"minge" - Same Chords As Chorus But Clean

Solo - Guitar 1    Backing - Chorus

                  ..             Improv Around These Notes
|------------------------------|----------------------9-10-12-|
|------------------------------|--------------9-10-12---------|
|------9-11-9~ 9~-99-11p9---9~ |------9-11-13-----------------|
|-9/11--------------------9----|-9-11-------------------------|
|------------------------------|------------------------------|
|------------------------------|------------------------------|

Next Part of Solo

  .  . .
|---------------------------------|
|---------------------------------|
|---------------------------------|
|---------------------------------|
|-9--9-9-11p9 Repeat a Few Times--|
|---------------------------------|


Trippy Part


|---------------------------------|
|--Phaser-------------------------|
|---------------------------------|
|--2~-----------------------------|
|--2~-----------------------------|
|--0~-----------------------------|


Bridge

|-----------------------------------------------------------------------|
|----------------Repeat All Once!---------------------------------------|
|-99999999--------------------------------------------------------------|
|-99999999-99999999-1111111111111111-77777777-[On Last time Strum Last]-|
|-77777777-99999999-1111111111111111-77777777-[Chord 32 Times        ]--|
|----------77777777-9-9-9-9-9-9-9-9--55555555---------------------------|


Post Bridge / Final Chorus / Outro
  . .    . .    .  .      . .  
|--------------------------------------|
|--------------------------------------|
|-9-9-9--------------------------------| Repeat Til End
|-9-9-9--9-9-9--11-11-11--7-7-7/9------|
|-7-7-7--9-9-9--11-11-11--7-7-7/9------|
|--------7-7-7--9--9--9---5-5-5/7------|
Related for Vaguely Full Car Park - Immature tab