Song name
# A B C D E F G H I J K L M N O P Q R S T U V W X Y Z

Misc Unsigned Bands - From The Shallows - Under A Killing Moonlight tab

Artist - From The Shallows
Song - Under a Killing Moonlight
Album - Beyond the Unknown



Tabbed by:'StoleN'
Email:stolen1337@myway.com

Tuning:Drop B

e|---------------------------------------------------------------------------|
B|---------------------------------------------------------------------------|
G|---------------------------------------------------------------------------|
D|---------------------------------------5h7h8------7h8h10-------------------| x2
A|-----5-4-5-7-8-7-5h7h8---8-7-8-10-5h7h8-----7h8h10-------------------------|
E|--0-0-0-0-0-0-0-0-----8-8-8-8-8--------------------------------------------|
PM  . . . . . . . .     . . . . .
e|---------------------------------------------------------------------------|
B|---------------------------------------------------------------------------|
G|---------------------------------------------------------------------------|
D|-------------------------------------------------0~------------------------| 
A|-----5-4-5-7-8-7-5h7h8---8-7-8-10----------------0~------------------------|
E|--0-0-0-0-0-0-0-0-----8-8-8-8-8--0-0-0-0-0-0-0-0-0~------------------------|
PM  . . . . . . . .     . . . . .  . . . . . . . .

e|---------------------------------------------------------------------------|
B|---------------------------------------------------------------------------|
G|---------------------------------------------------------------------------|
D|---------------------------------------------------------------------------|
A|--0-000-0-0-000-0-0-000-0-0-000--------------------------------------------|
E|--0-000-0-0-000-0-0-000-0-0-000--------------------------------------------|
PM  . ... . . ... . . ... . . ...
e|---------------------------------------------------------------------------|
B|---------------------------------------------------------------------------|
G|---------------------------------------------------------------------------|
D|----------------------------------------4-3-1------------------------------|
A|--------------000--000-------------000--4-3-1------------------------------|
E|--0-0-0-0-0-0-000--000-0-0-0-0-0-0-000--4-3-1------------------------------|
PM  . . . . . . ...  ... . . . . . . ...  . . .
e|---------------------------------------------------------------------------|
B|---------------------------------------------------------------------------|
G|---------------------------------------------------------------------------|
D|------------------10-10-10-10-10-10-------------------10-10-10-10-10-10----|
A|------------------8--8--8--8--8--8--------------------8--8--8--8--8--8-----|--------------|-
E|--0-0-0-0-0-0-0-0-8--8--8--8--8--8----0-0-0-0-0-0-0-0-8--8--8--8--8--8-----|              |-
PM  . . . . . . . .                     . . . . . . . .                                   x3|-
e|---------------------------------------------------------------------------|              |-
B|---------------------------------------------------------------------------|--------------|-
G|---------------------------------------------------------------------------|
D|------------------9--9--9--9--9--9--------------------9--9--9--9--9--9-----|
A|------------------7--7--7--7--7--7--------------------7--7--7--7--7--7-----|
E|--0-0-0-0-0-0-0-0-7--7--7--7--7--7----0-0-0-0-0-0-0-0-7--7--7--7--7--7-----|
PM  . . . . . . . .                     . . . . . . . .

e|---------------------------------------------------------------------------|
B|---------------------------------------------------------------------------|
G|---------------------------------------------------------------------------|
D|------------------10~--12~-------3--4--------------------------------------|
A|------------------8~---12~-------3--4--------------------------------------|
E|--0-0-0-0-0-0-0-0-8~---10~-------3--4--------------------------------------|
PM  . . . . . . . .                .  .
e|---------------------------------------------------------------------------|
B|---------------------------------------------------------------------------|
G|---------------------------------------------------------------------------|
D|--2------------------------------------------------------------------------|
A|--0-000-000-000-------------1"---------------------------------------------|
E|----000-000-000--0"--4"--3"----4"--8"--7"-5"-4"-8"--7"-5"-4"---------------|
PM    ... ... ...                    .   .  .   . .   .  .  .


e|---------------------------------------------------------------------------|
B|---------------------------------------------------------------------------|
G|---------------------------------------------------------------------------|
D|------------------7--------------------------------------------------------|  repeat a lot.
A|--5--5-7-8-10-8-7--10-8-7-8-7-5-7-3----------------------------------------|
E|---------------------------------------------------------------------------|



I cant figure out any of the sweeping/solo stuff yet, but im working on it.
email me if you can help at all.


Breakdown/outro
e|---------------------------------------------------------------------------|
B|---------------------------------------------------------------------------|
G|---------------------------------------------------------------------------|
D|--4--3--1--2--4--3---------------------------------------------------------|  repeat until end
A|--4--3--1--3--4--3--4*-----------------------------------------------------|
E|--4--3--1-----4--3-----3*--------------------------------------------------|
PM  .  .  .     .  .








| /  slide up
| \  slide down
| h  hammer-on
| p  pull-off
| ~  vibrato/hold
| *   pinch harmonic
| x  Mute note
===============================================================================
Tap to rate this tab
# A B C D E F G H I J K L M N O P Q R S T U V W X Y Z