Song name
# A B C D E F G H I J K L M N O P Q R S T U V W X Y Z

Misc Unsigned Bands - Jose Palma - Lupang Hinirang tab

Lupang Hinirang


I. 

Bayang magiliw...
Alab ng puso...
Lupang hinirang...
Sa manlulupig...

|-------------------------------------------------|
|---------------------------10-11-10-----10-------|
|--10---9--12--10-------12------------12-----10---|
|------------------10-----------------------------|
|-------------------------------------------------|
|-------------------------------------------------| 



II.

Sa dagat at bundok...
Ang kislap...

|-----------------------------------------11------|
|------------------------------11--12-13-----13---|
|--10-9-10--1212------12--------------------------|
|----------------1010----1010---------------------|
|-------------------------------------------------| 
|-------------------------------------------------|

May dilag ang tula... 
Ang bituin at...
|-----------------------------------------------------|
|---------------------------------10-11-10---10-------|
|--10-9-10--1212------12-------12----------12--12-10--|
|----------------1010----1010-------------------------|
|-----------------------------------------------------| 
|-----------------------------------------------------|



III.

Lupa ng araw...
Aming ligaya...

|-----------------------10----------10---11-10----10--------------------|
|----------11-11--13-13----13-11-13------------13----11--13---1010--11--|
|--10-9-10--------------------------------------------------------------|
|-----------------------------------------------------------------------|
|-----------------------------------------------------------------------| 
|-----------------------------------------------------------------------|


NOTES :

I. repeat 4x
II. repeat 2x 
III. repeat 2x
Tap to rate this tab
# A B C D E F G H I J K L M N O P Q R S T U V W X Y Z