Guitaretab - guitar tabs
Song name
# A B C D E F G H I J K L M N O P Q R S T U V W X Y Z

Misc Unsigned Bands - The Bungalows - Come Boy tab

www.myspace.com/thebungalowsmusic

Intro:

eb|-----------------------------------------------------------------------------|
Bb|-----------------------------------------------------------------------------|
Gb|-----------------------------------------------------------------------------|
Db|--------------------------------------------------------------------5-5------|
Ab|-----------------------------------------1-1---1--0-0---------------5-5------|
Eb|----3-3--6-6--3-3--1-1--3-3-6-6-3-3-1-1------1--------1-1--3-3-1-3--3-3--13\0|

eb|------------------------------------------------------------------------|
Bb|------------------------------------------------------------------------|
Gb|------------------------------------------------------------------------|
Db|-----------------------------------------3-3---3--2-2---------------5-5-|
Ab|----5-5--8-8--5-5--3-3--5-5-8-8-5-5-3-3--1-1-3-1--0-0-3-3--5-5-3-5--5-5-|
Eb|----3-3--6-6--3-3--1-1--3-3-6-6-3-3-1-1------1--------1-1--3-3-1-3--3-3-|



Verse:


Play x4:

eb|---3------x-----------------|
Bb|---3------x-----------------|
Gb|---3------x-----------------|
Db|---5------x-----------------|
Ab|---5(x2)--x(x2)-------------|
Eb|----------------------------|


play x1:
eb|--6--6--x------10--10--x-------3-3--x-----3-3--x---------|
Bb|--6--6--x------10--10--x-------3-3--x-----3-3--x---------|
Gb|--7--7--x------10--10--x-------3-3--x-----3-3--x---------|
Db|--8--8--x------12--12--x-------5-5--x-----5-5--x---------|
Ab|--8--8--x(x2)--12--12--x(x2)---5-5--x(x2)-5-5--x(x2)-----|
Eb|---------------------------------------------------------|



Chorus: 


lead:

eb|--------------------------------|
Bb|--8------3--------12------------|
Gb|--8------3--------10------------|
Db|--6(x8)--1(x8)----10(x16)-------|
Ab|--------------------------------|
Eb|--------------------------------|

Rhythm:

eb|------------------------------------------|
Bb|-----------15(x8)-------------------------|
Gb|---15(x8)------------12(x16)--------------|
Db|------------------------------------------|
Ab|------------------------------------------|
Eb|------------------------------------------|




Bridge:

Chords : Gm Bb Dm Gm each for 2 bars

[ Tab from: http://www.guitaretab.com/m/misc-unsigned-bands/102223.html ]
eb|---------------------------------------------------------------------------|
Bb|-------------------------------------------------15--15-15-----------------|
Gb|--12-15-12-12-12-15-14--12-14-10-10-10/15-15-15-------------12--12p10h12---|
Db|---------------------------------------------------------------------------|
Ab|---------------------------------------------------------------------------|
Eb|---------------------------------------------------------------------------|


Solo:

eb|---------------------------------------------------------------------------|
Bb|---------------------------------------------------------------------------|
Gb|---------------------------------------------------------------------------|
Db|---------------------------------------------------------------------------|
Ab|--10-10-13-13-10-10-8-8-10-10-13-13-10-10-8-8---13(x4)-12(x4)-10(x4)-8(x4)-|
Eb|---------------------------------------------------------------------------|


eb|---------------------------------------------------------------------------15(x5)|
Bb|--------------------------------------------------------------------15(x3)-------|
Gb|--12-12-15-15-12-12-10-10--12-12-15-15-12-12-10-10---12(x4)--15(x3)--------------|
Db|---------------------------------------------------------------------------------|
Ab|---------------------------------------------------------------------------------|
Eb|---------------------------------------------------------------------------------|


eb|---------------------------------------------------------------------------|
Bb|--15-13-11-----11-13--15--13-11b--11b-11b---15-13-11----13-11--11(x16)-----|
Gb|------------12--------------------------------------12---------------------|
Db|---------------------------------------------------------------------------|
Ab|---------------------------------------------------------------------------|
Eb|---------------------------------------------------------------------------|


Ending:

Play x4

eb|---10------x----------------------|
Bb|---11------x----------------------|
Gb|---12------x----------------------|
Db|---12------x----------------------|
Ab|---10(x2)--x(x4)------------------|
Eb|----------------------------------|

play x1
eb|--6--6--x------10--10--x---------10-------------------|
Bb|--6--6--x------10--10--x---------11-------------------|
Gb|--7--7--x------10--10--x---------12-------------------|
Db|--8--8--x------12--12--x---------12-------------------|
Ab|--8--8--x(x4)--12--12--x(x4)-----10-------------------|
Eb|------------------------------------------------------|

Related for The Bungalows - Come Boy tab
Advertisement will be closed in 10 seconds