Song name
# A B C D E F G H I J K L M N O P Q R S T U V W X Y Z

Misc Unsigned Bands - Baroness Of Retribution - Fall tab

Fall
By:Baroness Of Retribution



intro:
|--------------------------------------------------|
|--------------------------------------------------|
|-5--4-2--2-4-5----/7-5-4---5--4-2--2-4-5----------|
|---------------3-------------------------3--/7-5~-| 
|--------------------------------------------------|
|--------------------------------------------------|
                                                  
|--------------------------------------------------|
|--------------------------------------------------|
|-9--7-5--5-7-9---/10-9-7---9--7-5--5-7-9----------|
|---------------7-------------------------7-/10-9~-|
|--------------------------------------------------|
|--------------------------------------------------|
                                                  
|--------------------------------------------------|
|--------------------------------------------------|
|-2-(2)---------------------2-(2)------------------|
|-2-(2)---------3-----5-----2-(2)---------3-----5--|
|-0-(0)---------3-----5-----0-(0)---------3-----5--|
|---------------1-----3-------------------1-----3--|

Riff 1:
|-5-7--5h7p5--------------------------|
|------------8--7---------------------|
|-----------------5\4~--4-5--4h5p4----|
|----------------------------------5~-| 
|-------------------------------------|
|-------------------------------------|
                                     
|-------------------------------------|
|-7-8--7h8p7--------------------------|
|------------9--7---------------------|
|-----------------7-5~--5-7--5h7p5----| 
|----------------------------------7~-|
|-------------------------------------|
                                     
|-------------------------------------|
|-------------------------------------|
|-------------------------------------|
|---9------------7-------5------------|
|---7------------5-------3---------5--|
|----------------------------------3--|

Riff 2:
|-5-7--5h7p5---------------------------|
|------------8--7----------------------|
|-----------------5-4~--4-5--4h5p4-/7~-|
|--------------------------------------| 
|--------------------------------------|
|--------------------------------------|
                                     
|--------------------------------------|
|-7-8--7h8p7---------------------------|
|------------9--7----------------------|
|-----------------7-5~--5-7--5h7p5-/9~-| 
|--------------------------------------|
|--------------------------------------|
                                      
|--------------------------------------|
|--------------------------------------|
|--------------------------------------|
|---9------------7-------5----------4--|
|---7------------5-------3----------2--|
|--------------------------------------|

...



Tap to rate this tab
 
# A B C D E F G H I J K L M N O P Q R S T U V W X Y Z