Song name
# A B C D E F G H I J K L M N O P Q R S T U V W X Y Z

Misc Unsigned Bands - Naiad - The Pointless Orgasm Of Enthusiasm tab

The Pointless Orgasm of Enthusiasm
By:Naiad


very awful and crazy song...
lol...

Intro:
|-------------------------------------------------|
|-------------------------------------------------|
|-------------------------------------------------|
|---------------4-1-----3---------------5-4-------|
|-----5h6p5------------------5h6p5--------------6-|
|-0-0-------0-0-----0-0---0-0-------0-0-----0-0---|

|------------------------------------------------------------------|
|------------------------------------------------------------------|
|------------------------------------------------------------------|
|-------------------0-0-0-1-1-4-4--------------------0-0-0-1-1-4-4-|
|------------------------------------------------------------------|
|--0-0-0-1-1-1-4-4-4---------------0-0-0-1-1-1-4-4-4---------------|

|-------------------------------------------------|
|-------------------------------------------------|
|-------------------------------------------------|
|---------------4-1-----3---------------5-4-------|
|-----5h6p5------------------5h6p5--------------6-|
|-0-0-------0-0-----0-0---0-0-------0-0-----0-0---|
Tap to rate this tab
# A B C D E F G H I J K L M N O P Q R S T U V W X Y Z