Song name
# A B C D E F G H I J K L M N O P Q R S T U V W X Y Z

Misc Unsigned Bands - Naiad - Freedom tab

naiad- Freedom

intro:
|-----------------------------------------------------------------|
|-8-------4h6-8-9-6--------4h6-8---------4h6-8-9-6----------------|
|-----5h7--------------5h7-----------5h7--------------------------|
|-----------------------------------------------------------------|
|-----------------------------------------------------------------|
|-----------------------------------------------------------------|

e|-----------------------------------------------------------------|
B|-8-------4h6-8-9-6--------4h6-8---------4h6-8-9-6----------------|
G|-----5h7--------------5h7-----------5h7--------------------------|
D|-----------------------------------------------------------------|
A|-----------------------------------------------------------------|
E|-----------------------------------------------------------------|

maybe its correct...
Tap to rate this tab
# A B C D E F G H I J K L M N O P Q R S T U V W X Y Z