Song name
# A B C D E F G H I J K L M N O P Q R S T U V W X Y Z

Misc Unsigned Bands - Naiad - Symptoms tab

solo:
at(3:25)
|----17~--------17-19-20-19-20-22-20-19~--15h17-15h17-15h17-15h17-15h17---|
|-20---------17-----------------------------------------------------------|
|-------------------------------------------------------------------------|
|-------------------------------------------------------------------------|
|-------------------------------------------------------------------------|
|-------------------------------------------------------------------------|

-20-19-16/17-19-17---11bf-9-8-7h8p7h8---------17-19-20-19-17-19-17h19p17-|
--------------------------------------10/--17----------------------------|
-------------------------------------------------------------------------|
-------------------------------------------------------------------------|
-------------------------------------------------------------------------|
-------------------------------------------------------------------------|

|----17~--------17-19-20-19-20-22-20-19~--15h17-15h17-15h17-15h17-15h17---|
|-20---------17-----------------------------------------------------------|
|-------------------------------------------------------------------------|
|-------------------------------------------------------------------------|
|-------------------------------------------------------------------------|
|-------------------------------------------------------------------------|

-20-19-16/17-19-17---11bf-9-8-7h8p7h8---------17-19-20-19-17-19-17h19p17-|
--------------------------------------10/--17----------------------------|
-------------------------------------------------------------------------|
-------------------------------------------------------------------------|
-------------------------------------------------------------------------|
-------------------------------------------------------------------------|

that's all...
Tap to rate this tab
# A B C D E F G H I J K L M N O P Q R S T U V W X Y Z