Song name
# A B C D E F G H I J K L M N O P Q R S T U V W X Y Z

Misc Unsigned Bands - Baroness Of Retribution - Glasshouse tab

glasshouse tab
by: baroness of Retribution
album:Holocaust

intro:
|------------12-----------------------12-----------------------15------|
|13----13-------13----13--12----12-------12----12--17----17-------17---|
|---12----12-------12--------11----11-------11--------16----16-------16| 
|----------------------------------------------------------------------|
|----------------------------------------------------------------------|
|----------------------------------------------------------------------|

|------------13-----------------------13-----------------------14------|
|11----13-------12----13--12----12-------12----12--17----17-------17---|
|---12----12-------12--------11----11-------11--------16----16-------16| 
|----------------------------------------------------------------------|
|----------------------------------------------------------------------|
|----------------------------------------------------------------------|

|------------12-----------------------12-----------------------15------|
|12----13-------13----13--12----12-------12----12--17----18-------18---|
|---12----12-------12--------11----11-------11--------16----16-------16| 
|----------------------------------------------------------------------|
|----------------------------------------------------------------------|
|----------------------------------------------------------------------|

Tap to rate this tab
 
# A B C D E F G H I J K L M N O P Q R S T U V W X Y Z