Song name
# A B C D E F G H I J K L M N O P Q R S T U V W X Y Z

Misc Unsigned Bands - Baroness Of Retribution - Holocaust tab

Holocaust
by: Baroness of Retribution
album: Holocaust

intro:
|-------------------------------------------------|--------------|
|-------------------------------------------------|--------------|
|-------------------------------------------------|--------------| 
|-4~---5~-7\-------------------------------7------|--4~---5---4--|
|-------------7-7-9h10-9h10p7-9-7---7-9-10---10-9-|--------------|
|-------------------------------------------------|--------------|

|-------------------------------------------------|--------------|
|-------------------------------------------------|--------------|
|-------------------------------------------------|--------------| 
|------------------------------------------7------|--------------|
|-5~---7~-----7-7-9h10-9h10p7-9-7---7-9-10---10-9-|--5~---7~-----|
|-------------------------------------------------|--------------|

verse:
|------------------------------------|
|------------------------------------|
|------------------------------------|
|------------------------------------|
|--------------------------------5p4-|
|-3--000-0-5--000-0-6--000-0-5-6-----|

|------------------------------------|
|------------------------------------|
|------------------------------------|
|------------------------------------|
|--------------------------------5p4-|
|-3--000-0-5--000-0-6--000-0-5-6-----|

|------------------------------------|
|------------------------------------|
|------------------------------------|
|------------------------------------|
|--------------------------------5p4-|
|-3--000-0-5--000-0-6--000-0-5-6-----|

|------------------------------------|
|------------------------------------|
|------------------------------------|
|------------------------------------|
|--------------------------------5p4-|
|-3--000-0-5--000-0-6--000-0-5-6-----|

prechorus:
|------------------------------------------------------------------|
|------------------------------------------------------------------|
|------------------------------------------------------------------|
|------------------------------------------------------------------|
|-77777777555555553333333322222222777777775555555533333333---------|
|---------------------------------------------------------33333333-|
  ................................................................

chorus:
|--------------------------------------|
|--------------------------------------|
|--------------------------------------| 
|------9---------7---------5---------4-|
|-7-77-7-77-5-55-5-55-3-33-3-33-2-22-2-|
|--------------------------------------|
  . ..   .. . ..   .. . ..   .. . ..

|--------------------------------------|
|--------------------------------------|
|--------------------------------------| 
|------9---------7---------5-----------|
|-7-77-7-77-5-55-5-55-3-33-3-33------5-|
|-------------------------------3-33-3-|
  . ..   .. . ..   .. . ..   .. . ..


repeat verse, prechorus and chorus...

Tap to rate this tab
# A B C D E F G H I J K L M N O P Q R S T U V W X Y Z