Song name
# A B C D E F G H I J K L M N O P Q R S T U V W X Y Z

Misc Unsigned Bands - Crashcurse - Rebellion In The Backlands tab

Help us improve GuitareTab! Take a short survey!
intro:
|--------------------------------------------------|
|--------------------------------------------------|
|-5--4-2--2-4-5----/7-5-4---5--4-2--2-4-5----------|
|---------------3-------------------------3--/7-5~-| 
|--------------------------------------------------|
|--------------------------------------------------|
|                                                  |
|--------------------------------------------------|
|--------------------------------------------------|
|-9--7-5--5-7-9---/10-9-7---9--7-5--5-7-9----------|
|---------------7-------------------------7-/10-9~-| 
|--------------------------------------------------|
|--------------------------------------------------|
|                                                  |
|--------------------------------------------------|
|--------------------------------------------------|
|-2-(2)---------------------2-(2)------------------|
|-2-(2)---------3-----5-----2-(2)---------3-----5--| 
|-0-(0)---------3-----5-----0-(0)---------3-----5--|
|---------------1-----3-------------------1-----3--|

Related for Crashcurse - Rebellion In The Backlands tab