Song name
# A B C D E F G H I J K L M N O P Q R S T U V W X Y Z

Misc Unsigned Bands - Crashcurse - Sad And Sweet tab

|---------------------------------------------------------|
|---------------------------------------------------------|
|-9--9--9--9--9--9--9--9--7-7-7-7-7-7-7-7-5-5-5-5-5-5-5-5-|Gtr
|---------------------------------------------------------| I
|---------------------------------------------------------|
|---------------------------------------------------------|
     .  .  .     .  .  .    . . .   . . .   . . .   . . .

|---------------------------------------------------------|
|---------------------------------------------------------|
|-9------9-------7-------7-------5------5-----------------|Gtr
|---------------------------------------------------------| II
|--0-0-0---0-0-0---0-0-0---0-0-0---0-0-0--0-0-0-0-0-0-0-0-|
|---------------------------------------------------------|
|  . . .   . . .   . . .   . . .   . . .  . . . . . . . .

then:
|---------------------------------------------------------|
|---------------------------------------------------------|
|---------------------------------------------------------|Gtr
|-10-10-10-10-10-10-10-10-9-9-9-9-9-9-9-9-7-7-7-7-7-7-7-7-| I
|---------------------------------------------------------|
|---------------------------------------------------------|
|    .  .  .     .  .  .    . . .   . . .   . . .   . . .
Tap to rate this tab
 
# A B C D E F G H I J K L M N O P Q R S T U V W X Y Z