Song name
# A B C D E F G H I J K L M N O P Q R S T U V W X Y Z

Misc Unsigned Bands - Constellation Of Emery - Eradication Of St Agnes tab

Help us improve GuitareTab! Take a short survey!
intro:
|----------------------------------------|
|----------------------------------------|
|-2--4-5----2--4-5----2--4-5----4-5-7-9\-|
|----------------------------------------| 
|----------------------------------------|
|----------------------------------------|
                                . . .

|--------------------------------------------|
|--------------------------------------------|
|---------------------------------------7-9\-|
|-7--9-10----7--9-10----7--9-10----9-10-7-9\-| 
|-7--9-10----7--9-10----7--9-10----9-10-5-7\-|
|-5--7-8-----5--7-8-----5--7-8-----7-8-------|

|----------------------------------------|
|----------------------------------------|
|-2--4-5----2--4-5----2--4-5----4-5-7-9\-|
|----------------------------------------| 
|----------------------------------------|
|----------------------------------------|
                                  . . .

|--------------------------------------------|
|--------------------------------------------|
|---------------------------------------7-9\-|
|-7--9-10----7--9-10----7--9-10----9-10-7-9\-| 
|-7--9-10----7--9-10----7--9-10----9-10-5-7\-|
|-5--7-8-----5--7-8-----5--7-8-----7-8-------|
Related for Constellation Of Emery - Eradication Of St Agnes tab