Guitaretab - guitar tabs
Song name
# A B C D E F G H I J K L M N O P Q R S T U V W X Y Z

Misc Unsigned Bands - Alestorm - Instumental Song tab

i think this i right or else it is close. Most of the song is played in D aeolian.

(Verse One)
-----------------------------------------------------------------------|
-----------------------------------------------------------------------|
----14-14-12-16-14-12-14---14-14-12-16-14-12-14--14-14-12-16-14-12-14--|
--12---------------------12--------------------12----------------------|
-----------------------------------------------------------------------|
-----------------------------------------------------------------------|

---------------------|
---------------------|
----16--14--12--14---|     play twice on keyboard then 4 times on guitar
----14--12--10--12---|
---------------------|
---------------------|

[ Tab from: http://www.guitaretab.com/m/misc-unsigned-bands/102312.html ]
(Verse Two)
-----------------------------------------------------------------------------|
--------------------------------------------------15-15----------------------|
--12-14-15-14-12-12-14-------12-14-15-14-12-12-14-------12-14-15-14-12-12-14-|
-----------------------12-12-------------------------------------------------|
-----------------------------------------------------------------------------|
-----------------------------------------------------------------------------|

--------18-17-15------------------------------|
-----------------18-17-15---------------------|
---------------------------15-14-12-----------|    Play twice
-12-12------------------------------15-14-12--|
----------------------------------------------|
----------------------------------------------|

Play verse 1 again 2 times

Play verse 2 again 2 times


----
----
----
----  Play that D as a pinch harmonic before doing verse 1 again 2 times
----
-10-


Right before solo
---------------------------------------|
---------------------------------------|
---16--14--12--14--16--14--12--14------|
---14--12--10--12--14--12--10--12---2--|
------------------------------------2--|
------------------------------------0--|


Chords during solo:

--------------------------|
--------------------------|
-----5-5------------------|
-2-2-5-5-3-3-5-5----------|
-2-2-3-3-3-3-5-5----------|
-0-0-----1-1-3-3----------|

 E5  C5   F5  G5


Gavin Harper is awesome at soloing. I could figure it out except that some of it is out 
D Aeolian and D minor arppegio ascending and descending.
Related for Alestorm - Instumental Song tab
Advertisement will be closed in 10 seconds