Song name
# A B C D E F G H I J K L M N O P Q R S T U V W X Y Z

Misc Unsigned Bands - Jeff Casarona - Riff Of The Week 1 tab

Help us improve GuitareTab! Take a short survey!
Riff of the Week #1

By Jeff Casarona
Email: JeffC@vt.edu
Youtube Video: http://youtube.com/watch?v=-nou2kczEeQ

E|--------------9\7-----------7-|
B|--------7-------------3-------|
G|------7-----------------------|
D|----7-------7-------5-----5---|
A|--5-------5-------5-----------|
E|----------------3-------3-----|

E|-5-5-----5-----------2/3-2----|
B|-3-3---3---3-----3---2/3-2----|
G|-----4-------4---4---------4--|
D|---------5-----0-4-4----------|
A|------------------------------|
E|------------------------------|

E|-----0-0----0-------0-----|-2-|
B|-3-----2--------2--------||-3-|
G|-------2--2---2---2---2---|-2-|
D|---4-----2---2---2---2----|-0-|
A|-------0---0---0---0---0-||---|
E|--------------------------|---|
Related for Jeff Casarona - Riff Of The Week 1 tab