Song name
# A B C D E F G H I J K L M N O P Q R S T U V W X Y Z

Misc Unsigned Bands - On Frail Wings - Galacticus tab

Tuning: Standard
Verse a:                    Verse b:
e|-------------------------|----------------------------------------|
B|-------------------------|----------------------------------------|
G|-------------------------|----------------------------------------|
D|---6-6-------------------|----6-6---7---9-------------------------|
A|-4-----4-7-4-0-4---------|--4-----5---0---------------------------|
E|-------------------------|----------------------------------------|
interval
e|------5------7-5---------------5--------7-5--------------------------|
B|--------6--------6-0-6-----------6----------6-0-6--------------------|
G|----------5------------4-----------5--------------4------------------|
D|----0--------------------4--------------------------4----------------|
A|---------------------------0--------------------------0--------------|
E|-----------------------------4--------------------------4------------|

Intro
e|-4-------4------4------4--------4------4-------4-------4-------4---------|
B|---5-------5------5------5---7----5------5-------5-------5------5---7----|
G|-----6-------6------6------6--------6------6-------6-------6------6------|
D|-------7-------7------7---------------6------6-------6-------6-----------|
A|-------------------------------------------------------------------------|
E|-------------------------------------------------------------------------|
Chorus
e|----------------------------------------------------------------------|
B|----------------------------------------------------------------------|
G|----------------------------------------------------------------------|
D|-4-4-66-8-6-2--2-2-4--------------------------------------------------|
A|-4-4-66-8-6-2--2-2-4--------------------------------------------------|
E|-2-2-44-6-4-0--0-0-2--4-5-4-5-7---------------------------------------|
interval 2
e|----------------------------------------------------------------------|
B|----------------------------------------------------------------------|
G|----------------------------------------------------------------------|
D|-6-6-6-6-6--6-6-6-6-6--6-6--------------------------------------------|
A|-4-4-4-4-4--4-4-4-4-4--4-4--------------------------------------------|
E|-------------------------------7h8-7h8-7h8-7h8-7h8--------------------|



Song layout:
intro x 2
interval x 4
verse a x 8
verse b x 4
chorus x 2
interval x 1
verse a x 8
verse b x 4
chorus x 2
interval 2 x 3
intro x 2


Tap to rate this tab
 
# A B C D E F G H I J K L M N O P Q R S T U V W X Y Z