Song name
# A B C D E F G H I J K L M N O P Q R S T U V W X Y Z

Misc Unsigned Bands - Steve M - Sanctuary tab

x = palm mute 
/ = slide
p = pinch harmonic
~ = vibrato




Intro/Verse 2
e|-------------------------------------------------------------|
b|-------------------------------------------------------------|
g|-------------------------------------------------------------|
d|-------------------------------------------------------------|
a|-------------------------------------------------------------| X2  
e|-1-34-1-34-1-34-1-34-1-343/-3-56-3-56-3-56-3-56-3-56-6-5-3-2-| 



Verse: (Guitar 2)
|-------------------------------|
|-------------------------------|
|-------------------------------|
|-0000-1-0000-3-0000-1-0000-333-| X2
|-0000-1-0000-3-0000-1-0000-333-|
|-0000-1-0000-3-0000-1-0000-333-|
  xxxx   xxxx   xxxx   xxxx  x
 

Verse: (Guitar 1) 
|-------------------------|----------------------------|
|-------------------------|----------------------------|
|-------------------------|-------------------------7p-|
|-6-89h--12-10-910h-7-97h-|-6-89h--12-10-910h-7-97h----|X2
|-------------------------|----------------------------|
|-------------------------|----------------------------| 


Chorus 
|---------------------------------------------------------|
|---------------------------------------------------------|
|---------------------------------------------------------|
|---------------------------------------------------------|X2
|--9-9-9-9~0000--7-7-7-7~0000--5-5-5-5~0000--7-7-7-7~0000-|
|-7-7-7-7--0000-7-7-7-7--0000-7-7-7-7--0000-7-7-7-7--0000-|
           xxxx          xxxx          xxxx          xxxx  


Outro 
(Guitar 1)
|-------------------------------|
|-------------------------------|
|-------------------------------|
|-14--14---12--12---10-10--9-9--|X4
|---12--12---10--10---8--8--7-9-|
|-------------------------------| 

(Guitar 2) 

|---------------------------------------------|
|---------------------------------------------|
|-14-14-14-14-12-12-12-12-10-10-10-10---------|X4
|-14-14-14-14-12-12-12-12-10-10-10-10---------|
|-12-12-12-12-10-10-10-10-8--8--8--8---7p-----|
|---------------------------------------------|



Order: 

Intro
Verse 
Chorus 
Verse 
Chorus 
Verse 2 
Outro 


Tap to rate this tab
# A B C D E F G H I J K L M N O P Q R S T U V W X Y Z