Song name
# A B C D E F G H I J K L M N O P Q R S T U V W X Y Z

Misc Unsigned Bands - Rs - The Zombieking tab

ZOMBIEKING
As performed by: Roadkill Safari

Tuning: Standard.
Tabbed by: Tossevangrim@gmail.com


Riff 1. Guitar A
e---------------------|
B---------------------|
G---------------------|
D------5-7-5----------| X4
A-2-2------------5-3--|
E------------3-3------|

Riff 1. Guitar B
e----------------------------------|
B----------------------------------|
G-12-11-10-9-12-11-10-9-11~-12-11~-|
D--------------------------x-------| X2
A----------------------------------|
E----------------------------------|

Riff 2. Guitar A + B
e---7-10--------------|
B-8------7------------|
G---------------------|
D---------------------|
A---------------------|
E---------------------|

Riff 3. Guitar A
e-----------------------|
B-----------------------|
G-----------------------|
D-----------------------| X2
A--2222-5555--------33--|
E------------3333-33----|

Riff 3. Guitar B
e--10------10----10-----|
B--13^-----13^10-13^----|
G-----------------------|
D-----------------------|
A-----------------------|
E-----------------------|

Riff 4. Guitar A
e-0000--------------------|
B-0000-5555-3333-4444-----|
G-1111-5555-4444-4444-----|
D-2222-5555-5555-4444-----|
A-2222-3333-5555-2222-----|
E-0000------3333----------|

Riff 4. Guitar B
e----0------------------|
B----0--5555-3-3--4444--|
G----1--5555-4-4--4444--|
D----2--5555-5-5--4444--|
A-2--2--3333-5-5--2222--|
E-0--0-------3-3--------|
Tap to rate this tab
# A B C D E F G H I J K L M N O P Q R S T U V W X Y Z