Song name
# A B C D E F G H I J K L M N O P Q R S T U V W X Y Z

Misc Unsigned Bands - Zhiss - The Cowards Way tab

Help us improve GuitareTab! Take a short survey!
STANDARD TUNING: (4x4 time)

This is the riff for verse 1:

e: ------------------------------------------------------------------------|
B: ------------------------------------------------------------------------|
G: ------------------------------------------------------------------------|
D: ------------------------------------------------------------------------|
A: 10-9--------10-9-------10-9------10-9-----------------------------------|
E: -----10-9-9------10-9-9----10-9-9-----10-9-9----------------------------|
   E  E E  E E  E E  E E E E E E E E E E  E E E
Play that 10 times

Intro to chorus:

e: ------------------------------------------------------------------------|
B: ------------------------------------------------------------------------|
G: ------------------------------------------------------------------------|
D: ---------7-7-5-5-7------------------------------------------------------|
A: ---------7-7-5-5-7------------------------------------------------------|
E: -8-7-6-5-5-5-3-3-5------------------------------------------------------|
    E E E E E E E E H

Chorus:

e: ------------------------------------------------------------------------|
B: ------------------------------------------------------------------------|
G: ------------------------------------------------------------------------|
D: 7-7-5-5-7------7-7-9-9-7------------------------------------------------|
A: 7-7-5-5-7-(x3)-7-7-9-9-7------------------------------------------------|
E: 5-5-3-3-5------5-5-7-7-5------------------------------------------------|
   E E E E H      E E E E H

Play the chorus twice and end on a whole note, not a half.

Verse 2 Riff

e: -----------------------------------------------------------------------|
B: -----------------------------------------------------------------------|
G: -----------------------------------------------------------------------|
D: ------7-5--------------------------------------------------------------|
A: ----7-----7------------------------------------------------------------|
E: 5-5--------------------------------------------------------------------|
   E E E E Q Q
Play 9 times


Intro to Chorus:

e: -----------------------------------------------------------------------|
B: -----------------------------------------------------------------------|
G: -----------------------------------------------------------------------|
D: ------7-5-------7-7-5-5-7----------------------------------------------|
A: ----7-----7-5---7-7-5-5-7----------------------------------------------|
E: 5-5-----------7-5-5-3-3-5----------------------------------------------|
   E E E E H Q E E E E E E H

Bridge:

e: -----------------------------------------------------------------------|
B: -----------------------------------------------------------------------|
G: -----------------------------------------------------------------------|
D: x-x-7-------x-x-9------------------------------------------------------|
A: x-x-7--(x3)-x-x-9- (x3)------------------------------------------------|
E: x-x-5-------x-x-7------------------------------------------------------|
   E E H       E E H

Outro Riff:

e: ------------------------------------------------------------------------|
B: ------------------------------------------------------------------------|
G: ------------------------------------------------------------------------|
D: 7-7-7-7-5-5-5-5------7-7-7-7-9-9-9-9-7-7-7-7-7-7-7-7--------------------|
A: 7-7-7-7-5-5-5-5-(x3)-7-7-7-7-9-9-9-9-7-7-7-7-7-7-7-7--------------------|
E: 5-5-5-5-3-3-3-3------5-5-5-5-7-7-7-7-5-5-5-5-5-5-5-5--------------------|
   (all eighth)


End on e:-----
       B:-----
       G:-----
       D:--7--
       A:--7--
       E:--5--
           W(let ring)


Verse 1 Riff                  x 10
Intro To Chorus               x 1
Chorus                        x 2
Verse 2 Riff                  x 9
Chorus                        x 2
Bridge                        x 1
Chorus                        x 1
Bridge                        x 1
Chorus                        x 1
Outro Riff                    x 5
End On                        x 1
Related for Zhiss - The Cowards Way tab