Song name
# A B C D E F G H I J K L M N O P Q R S T U V W X Y Z

Misc Unsigned Bands - Soundshock - Hazey Purple tab

This is most of my own song with 2 guitars:

Guitar 1 plays:

E:-----------------------------------------------------------------------------|
B:-----------------------------------------------------------------------------|
G:---9-9-7---------------------------------------------------------------------|
D:---------9-8-7>--------------------------------------------------------------|
A:---------------gap of about half a sec-7-7-5---------------------------------|
E:---------------------------------------------7-6-5>-0-0-1-3-4-0--------------|

Optional Bend- >

all notes played in quavers

Play SIx times and when guitar one reaches 2nd bar 2nd guitar playes:

E:-----------------------------------------------------------------------------|
B:-----------------------------------------------------------------------------|
G:-----------------------------------------------------------------------------|
D:---0--1--0--1--3--4------0--1--0--1--3--4------------------------------------|
A:---0--1--0--1--3--4------0--1--0--1--3--4------------------------------------|
D:---0--1--0--1--3--4------0--1--0--1--3--4------------------------------------|

4 Times

Hope U like it
Tap to rate this tab
# A B C D E F G H I J K L M N O P Q R S T U V W X Y Z