Song name
# A B C D E F G H I J K L M N O P Q R S T U V W X Y Z

Misc Unsigned Bands - Our Final Serenade - My Double-sided Life tab

 4/4
  Gtr I
|-------------------------------------------------------------------|
|-------------------------------------------------------------------|
|-----0-------0-------0-------0-------0-------0-------0-------0-----|
|---0---0---0---0---0---0---0---0---0---0---0---0---0---0---0---0---|
|-3-------3-------5-------5-------7-------7-------3-------3---------|
|-------------------------------------------------------------------|


  Gtr I
|--------------------------------------------------------------------|
|--------------------------------------------------------------------|
|-----0-------0-------0-------0-------0-------0-------0-------0------|
|---0---0---0---0---0---0---0---0---0---0---0---0---0---0---0---0----|
|-3-------3-------2-------2------------------------------------------|
|---------------------------------2-------2-------3-------2----------|


  Gtr I
|--------------------------------------------------------------------|
|-----0-------0-------0-------0-------0-------0-------0-------0------|
|---0---0---0---0---0---0---0---0---0---0---0---0---0---0---0---0----|
|-----------------2-------2-------0-------0--------------------------|
|-3-------3---------------------------------------3-------3----------|
|--------------------------------------------------------------------|


  Gtr I
|--------------------------------------------------------------------|
|-----0-------0-------0-------0-------0-------0-------0-------0------|
|---0---0---0---0---0---0---0---0---0---0---0---0---0---0---0---0----|
|--------------------------------------------------------------------|
|-3-------3-------2-------2------------------------------------------|
|---------------------------------2-------2-------3-------2----------|


  Gtr I
|---------0---------------0---------------0---------------0----------|
|-----0-----0---0-----0-----0---0-----0-----0---0-----0-----0---0----|
|---0---0-----0-----0---0-----0-----0---0-----0-----0---0-----0------|
|--------------------------------------------------------------------|
|-3---------------5---------------7---------------3------------------|
|--------------------------------------------------------------------|


  Gtr I
|---------0---------------0---------------0--------------------------|
|-----0-----0---0-----0-----0---0-----0-----0---0-----0-------0------|
|---0---0-----0-----0---0-----0-----0---0-----0-----0---0---0---0----|
|--------------------------------------------------------------------|
|-3---------------2--------------------------------------------------|
|---------------------------------2---------------3-------2----------|


    Gtr I
                                             4x
||-------------------------------------------||----|
||o-----------------------------------------o||----|
||----------------------4-4-4-4-4------------||----|
||--2-2-2-2-2-4-4-4-4-4-5-5-5-5-5-4-4-4-4-4--||----|
||o-2-2-2-2-2-5-5-5-5-5-0-0-0-0-0-5-5-5-5-5-o||----|
||--3-3-3-3-3-0-0-0-0-0-0-0-0-0-0-0-0-0-0-0--||----|


  Gtr I
|---------------------------------------------------------------------|
|---------------------------------------------------------------------|
|-----0-------0-------0-------0-------0-------0-------0---------------|
|---0---0---0---0---0---0---0---0---0---0---0---0---0---0----0---0----|
|-3-------3-------5-------5-------7-------7-------9-------10---9------|
|---------------------------------------------------------------------|


  Gtr I
|------------------------------------------------------|
|------------------------------------------------------|
|-----0-------0-------0-------0-------0-------0--------|
|---0---0---0---0---0---0---0---0---0---0---0---0------|
|-3-------3-------5-------5-------2-------2------------|
|-------------------------------------------------2----|


  Gtr II
|---------------------------------------------------------------------|
|-------------0---------------0---------------------------------------|
|-----0---------0-----0---------0-----0-------0-----0-------0---------|
|---2---2---2-------2---2---2-------4---4---4-----2---2---1---1---1---|
|-3---------------3---------------5-------5-----3-------2-------2-----|
|---------0---------------0-------------------------------------------|


    Gtr II
||--------0-0-0-0-0-------0-0-0-0-0-------0-0-0-0-0-------0-0-0-0-0--||--|
||o-------3-3-3-3-0-------5-5-5-5-0-------7-7-7-7-0-------5-5-5-5-5-o||--|
||--------0-0-0-0-0-------0-0-0-0-0-------0-0-0-0-0-------0-0-0-0-0--||--|
||--2-2-2-2-2-2-2-2-4-4-4-4-4-4-4-4-5-5-5-5-5-5-5-5-4-4-4-4-4-4-4-4--||--|
||o-3-3-3-3-3-3-3-3-5-5-5-5-5-5-5-5-7-7-7-7-7-7-7-7-5-5-5-5-5-5-5-5-o||--|
||--0-0-0-0-0-0-0-0-0-0-0-0-0-0-0-0-0-0-0-0-0-0-0-0-0-0-0-0-0-0-0-0--||--|


  Gtr II
|---------------------3-------------------------------3-----------------|
|-----3-----------------3-------------3-----------------3---------------|
|-------0---0---0---0-------------------0---0---0---0-------------------|
|---2-----4---4---2-------0-4-5-4---2-----4---4---2-------0-4-5-4-0-4-5-|
|-3-------------------------------3-------------------------------------|
|-----------------------------------------------------------------------|


  Gtr II
|--------------------------|
|--------------------------|
|-----0-------0------------|
|---2---2---1---1---1-2----|
|-3-------2-------2--------|
|--------------------------|
Tap to rate this tab
# A B C D E F G H I J K L M N O P Q R S T U V W X Y Z