Song name
# A B C D E F G H I J K L M N O P Q R S T U V W X Y Z

Misc Unsigned Bands - Metabolicalliance - Spider tab

MetabolicAlliance. Spider.

Small band from Dauphin Manitoba.

tuning: standard

e|-----------------------------------------|
B|--------------------3^3------------------|
G|--------------------3^3------------------|
D|-----------------------------------------|
A|-------------------------0-1-3-0-4-3-1-3-|
E|--0-1-3-0-4-3-1-3--------0-1-3-0-4-3-1-3-|
   pm..............(x4)    heavy dist.....(x4)

e|------------------|
B|------------------|
G|------------------|
D|------------------|(x8)
A|--0-3-5-0-6-5-3-5-|(heavy distortion)
E|--0-1-3-0-4-3-1-3-|


e|---------------------------------------------------------|
B|---------------------------------------------------------|
G|---------------------------------------------------------|
D|---------------------------------------------------------|
A|--------------------------------0-8-7-0-6-5-0-3-4let ring|
E|--0-8-7-0-6-5-0-3-4----(pause)--0-8-7-0-6-5-0-3-4let ring|
  pm.................


If you want more heavy songs from MetabolicAlliance email me at 
               thank you!
Tap to rate this tab
# A B C D E F G H I J K L M N O P Q R S T U V W X Y Z