Song name
# A B C D E F G H I J K L M N O P Q R S T U V W X Y Z

Misc Unsigned Bands - Sing It Loud - Come Around tab

o yeah.. this is my first time to submit tabs here.. :)
---------------------------------------------------------------------------

ofcourse im "sing It louds Fan " haha... o yeah... this tab is how i played it in this
the link http://youtube.com/watch?v=59vCIpxImmo check it out if u want.. :) this is my
attempt to cover this song at youtube.. i have exchanged messages with sing it louds pat
at myspace... and they have watched it haha.. cool.. also.. i ask him if its out of
he says that the acoustic version and the original one was in different tunning.. and he
that the original one was in d .. so.. i guess this tab ive figured was the original
not the acoustic version.. :) i hope it sounds pretty alike.. :) i have made my redo 
of this song.. heres the link.. http://youtube.com/watch?v=R92pMp15tcs i've played
how Pat Brown did in the video at youtube..:) but i havent made the tabs yet.. so i will
this one for now...  feel free to comment and rate :)

Come Around
by:sing it loud
tabbed by: ian christopher bilasano


tunning
DADGDD


intro
im all tied up....
d-x-x-x-x-x
d-x-x-x-x-x
g-6-x-x-x-x-|
d-6-6-8-6-4-|
a-4-6-8-6-4-|
d-m-4-8-6-4-|


intro instrumental part

d-x-x-x-x-x-x-|
d-x-x-x-x-x-x-|
g-6-x-x-x-6-4-|
d-6-6-6-4-6-4-|
a-4-6-6-4-6-4-|
d-m-4-6-4-6-4-|

verse1

late night, bring back the heat some more..it takes all that i have..

d-x-x-x-x-x
d-x-x-x-x-x
g-x-x-x-x-x
d-8-4-6-4-6-|
a-8-4-6-4-6-|
d-8-4-6-4-6-|


it takes all that i have..last call thats what i said tonight
d-x-x---------------------x--------------------------------x-|
d-x-x---------------------x--------------------------------x-|
g-x-x---------------------x--------------------------------x-|
d-4/6---------------------/8-------------------------------4-|
a-4/6---------------------/8-------------------------------4-|
d-4/6---------------------/8-------------------------------4-|

past out, lose controll in the fading light,, so many nights/..

d-x----------------------------------------x-x-|
d-x----------------------------------------x-x-|
g-x----------------------------------------x-x-|
d-4---------------------------------------/6/8-|
a-4---------------------------------------/6/8-|
d-4---------------------------------------/6/8-|


spend with you inthe beggining..
d-x--------------------x-|
d-x--------------------x-|
g-x--------------------x-|
d-6--------------------4-|
a-6--------------------4-|
d-6--------------------4-|

it takes a while getting used to having nothing..i woould give..
d-x-------------------------------------------x-x-|
d-x-------------------------------------------x-x-|
g-x-------------------------------------------x-x-|
d-4------------------------------------------/6/8-|
a-4------------------------------------------/6/8-|
d-4------------------------------------------/6/8-|

all i have..just to be what you need.i give myself to be me,.and to hold
d-x---------x------------------------x----------------------------x-|
d-x---------x------------------------x----------------------------x-|
g-x---------x------------------------x----------------------------x-|
d-4---------6------------------------4----------------------------6-|
a-4---------6------------------------4----------------------------6-|
d-4---------6------------------------4----------------------------6-|

chorus:
im all tied up...

im all tied up.......just to see you moved..
d-x-x-x-x-x--------------------------------x-x-|
d-x-x-x-x-x--------------------------------x-x-|
g-6-x-x-x-x--------------------------------x-x-|
d-6-6-4/6/8--------------------------------4-6-|
a-4-6-4/6/8--------------------------------4-6-|
d-m-6-4/6/8--------------------------------4-6-|

and for the past few days.................tonight

d-x-x-x-x-x--------------------------------x-|
d-x-x-x-x-x--------------------------------x-|
g-6-x-x-x-x--------------------------------x-|
d-6-6-4/6/8--------------------------------4-|
a-4-6-4/6/8--------------------------------4-|
d-m-6-4/6/8--------------------------------4-|


verse2:
         exposing youre my weakness.. i'll take this day by day

d-x-x-x-x-x--x-x-x--------------------x-----|
d-x-x-x-x-x--x-x-x--------------------x-----|
g-x-x-x-x-x--x-x-x--------------------x-----|
d-4/6/8-6h8--8-6h8--------------------4-----|
a-4/6/8-6h8--8-6h8--------------------4-----|
d-4/6/8-6h8--8-6h8--------------------4-----|    x4


for lost of words to say
d-x-------------------x-|
d-x-------------------x-|
g-x-------------------x-|
d-4-------------------6-|
a-4-------------------6-|
d-4-------------------6-|

chorus....


bridge

what goes around, comes around in the end

d-x-
d-x-
g-x-
d-8-
a-8-
d-8-


it takes you down and you'll never gonna stop it
d-x-
d-x-
g-x-
d-4-
a-4-
d-4-

what goes around comes around in the end,

d-x-
d-x-
g-6-
d-6-
a-4-
d-m-

it takes you down and you'll never gonna stop it

d-x-
d-x-
g-x-
d-6-
a-6-
d-6-   repeat for many times...


i waited up all night just to see you moved
d-x-------------x-----------------------x-|
d-x-------------x-----------------------x-|
g-x-------------x-----------------------x-|
d-8-------------6-----------------------4-|
a-8-------------6-----------------------4-|
d-8-------------6-----------------------4-|


hope this help :)


add my myspace:) ianchristopher_bilasano@yahoo.com
friendster: ffotsirhc@yahoo.com
youtube channel: emotoff

o yeah.. im not good at making tabs.. so bare with it hehe...

-pinoy.guitarist :)
Tap to rate this tab
# A B C D E F G H I J K L M N O P Q R S T U V W X Y Z