Song name
# A B C D E F G H I J K L M N O P Q R S T U V W X Y Z

Misc Unsigned Bands - Capital Game - Virtual Reality tab

Help us improve GuitareTab! Take a short survey!
----------------------------------------------------------------------------
	            Virtual Reality - Capital Game
----------------------------------------------------------------------------
Tabbed by: Justin Scott - Capital Game
Email:

Tuning: EADGBe
_______
INTRO
_______
e|----------------------------------|
B|----------------------------------|
G|----------------------------------|
D|----------------------------------|X2
A|----7-7-7-5h7-5-5-5-5-3-----------|
E|----5-5-5-----3-3-3---------------|

_______
Verse
_______

e|----------------------------------|
B|----------------------------------|
G|----------------------------------|
D|----------------------------------|X8
A|----7-7-7-----5-5-5---------------|
E|----5-5-5-----3-3-3---------------|

_______
Pre-
Chorus
_______
e|------------------------------------||---|  |---------------|
B|------------------------------------||---|  |---------------|
G|------------------------------------||---|  |---------------|
D|------------------------------------||---|X8|---------------|
A|----7-7-7-7-7-7-7-7-5-5-5-5-5-5-5-5-||10-|  |7-7-7-7-7-7-7-7|
E|----5-5-5-5-5-5-5-5-3-3-3-3-3-3-3-3-||8--|  |5-5-5-5-5-5-5-5|

______
Chorus
______

e|------------------------------------|----------------|
B|------------------------------------|----------------|
G|------------------------------------|----------------|
D|--------------------7-7-7-7-7-7-7-7-|5-5-5-5-5-5-5-5-|X4
A|----7-7-7-7-7-7-7-7-5-5-5-5-5-5-5-5-|3-3-3-3-3-3-3-3-|
E|----5-5-5-5-5-5-5-5-----------------|----------------|

________
Bridge
_______

e|----------------------------------|
B|----------------------------------|
G|----------------------------------|
D|----------------------------------|X4
A|----777-7p5p3h5-555-7p5p3h5-------|
E|----555---------333---------------|



| /  slide up
| \  slide down
| h  hammer-on
| p  pull-off
| ~  vibrato
| +  harmonic
| x  Mute note
============================================================================
Related for Capital Game - Virtual Reality tab