Song name
# A B C D E F G H I J K L M N O P Q R S T U V W X Y Z

Misc Unsigned Bands - Belay My Last - Fpe Tv Song Cool Part tab

-----------------------------------------------------------------------------|
-----------------------------------------------------------------------------|
-----------------------------------------------------------------------------|
-5-5--------7--7--------8-8-8--------12-------------8--12-12--------13-------|
-5-5slide-to7--7slide-to8-8-8slide-to12slide-back-to8--12-12slide-to13-------|
-5-5--------7--7--------8-8-8--------12-------------8--12-12--------13-------|
continued from above
-----------------------12\13------------------------|
----------------------------14----------------------|
--------------------------13pinch-harmonic bend-----|
-slide-back-to10-1010-------------------------------|
--------------10-1010-------------------------------|
--------------10-1010-------------------------------|

This is the song from belay my last that they play on fpetv at the time 2:13

Well its the cool riff and i love it so i figured I'd share it.

Its drop c. Im pretty sure.
Tap to rate this tab
 
# A B C D E F G H I J K L M N O P Q R S T U V W X Y Z