Song name
# A B C D E F G H I J K L M N O P Q R S T U V W X Y Z

Misc Unsigned Bands - Curse And Bleed - Metalcaust tab

Intro
D|----------------------------------------------|
A|----------------------------------------------|
F|----------------------------------------------|
C|------------------------------------1/3-3/5-5-|
G|-4--2--1--1-1-1-1-1-1-1--4--2--1----x-x-x-x-x-|
C|-4--2--1--1-1-1-1-1-1-1--4--2--1--1-1/3-3/5-5-|
            . . . . . . .

D|----------------------------------------------|
A|----------------------------------------------|
F|----------------------------------------------|
C|------------------------------------1/3-3/5-5-|
G|-4--2--1--1-1-1-1-1-1-1--4--2--1----x-x-x-x-x-|
C|-4--2--1--1-1-1-1-1-1-1--4--2--1--1-1/3-3/5-5-|
            . . . . . . .

D|----------------------------------------------|
A|----------------------------------------------|
F|----------------------------------------------|
C|------------------------------------1/3-3/5-5-|
G|-4--2--1--1-1-1-1-1-1-1--4--2--1----x-x-x-x-x-|
C|-4--2--1--1-1-1-1-1-1-1--4--2--1--1-1/3-3/5-5-|
            . . . . . . .

                                    Verse
D|---------------------------------|----------------------------------|
A|---------------------------------|----------------------------------|
F|---------------------------------|----------------------------------|
C|---------------------------------|----------------------------------|
G|-4--2--1--1-1-1-1-1-1-1--4----2--|---------22221111--------55554444-|
C|-4--2--1--1-1-1-1-1-1-1--4----2--|-11114444--------11114444---------|
            . . . . . . .

D|--------------------------------------------------------------------|
A|--------------------------------------------------------------------|
F|--------------------------------------------------------------------|
C|--------------------------------------------------------------------|
G|--------22221111--8p5---2h3---6p3----------22221111--------55554444-|
C|11114444--------------0-----0------11114444--------11114444---------|


D|----------------------------------|
A|----------------------------------|
F|----------------------------------|
C|----------------------------------|
G|--------22221111-3h4p3---3--------|
C|11114444---------------5---4-5-3~-|


D|-------------------------------------------------------------------|
A|-------------------------------------------------------------------|
F|-------------------------------------------------------------------|
C|-------------------------------------------------------------------|
G|---------22221111--------55554444--------22221111--8p5---2h3---6p3-|
C|-11114444--------11114444--------11114444--------------0-----0-----|


D|--------------------------------------------------------------------|
A|--------------------------------------------------------------------|
F|--------------------------------------------------------------------|
C|--------------------------------------------------------------------|
G|---------22221111--------55554444--------22221111--3h4p3---3--------|
C|-11114444--------11114444--------11114444----------------5---4-5-3~-|

Pre-Chorus
D|--------------------------------------------------------------------|
A|--------------------------------------------------------------------|
F|--------------------------------------------------------------------|
C|-------------------------1h2p1--------------------------------------|
G|-----3---8p5---2h3---1h2-------3-2------3---8p5---2h3---1h2-0h1p0---|
C|-0-0---0-----0-----0----------------0-0---0-----0-----0----------3~-|

Chorus
D|--------------------------------------------|
A|--------------------------------------------|
F|--------------------------------------------|
C|--------------------------------------------|
G|0----1----3----2-0-----------1-3-4-3--------|
C|0-00-1-00-3-00-2-0---0-0-0-0---------4-3-1~-|
    ..   ..   ..


D|-------------------------------------------------|
A|-------------------------------------------------|
F|-------------------------------------------------|
C|-------------------------------------5h6p5-------|
G|0----1----3----2-0-----------5h6-----------7p6p5-|
C|0-00-1-00-3-00-2-0---0-0-0-0-----7h8-------------|
    ..   ..   ..

Really Heavy Part (Must Have Whammy Bar) ! = whammy
D|-------------------------------------------------------------|
A|-------------------------------------------------------------|
F|-------------------------------------------------------------|
C|-0--------------------0!----------0!----------0!----------0!-|
G|-0--------------------0!----0000--0!----0000--0!----0000--0!-|
C|-0[let ring out]------0!----0000--0!----0000--0!----0000--0!-|


Solo
I don't have an official solo yet but I'm working on it.


Verse

Pre-Chorus

Chorus

Really Heavy Part
Tap to rate this tab
 
# A B C D E F G H I J K L M N O P Q R S T U V W X Y Z