Guitaretab - guitar tabs
Song name
# A B C D E F G H I J K L M N O P Q R S T U V W X Y Z

Misc Unsigned Bands - Breaking Tides - Take Me Away tab

Verse/Intro
 Amin7    Emin7      F          G
|-0-----0------1----3--------------------------------|
|-1-----3------1----3--------------------------------|
|-0-----0------2----4--------------------------------|
|-2-----2------3----5--------------------------------|
|-0-----2------3----5--------------------------------|
|-------0------1----3--------------------------------|
Amin7       F             B6       G
|-0-----1-----------3--------------------------------|
|-1-----1------3----3--------------------------------|
|-0-----2------3----4--------------------------------|
|-2-----3------3----5--------------------------------|
|-0-----3------1----5--------------------------------|
|-------1-----------3--------------------------------|
[ Tab from: http://www.guitaretab.com/m/misc-unsigned-bands/102634.html ]
1st Chorus 
    C           G           Amin     F
|-------3------5----1--------------------------------|
|-5-----3------5----1--------------------------------|
|-5-----4------5----2--------------------------------|
|-5-----5------7----3--------------------------------|
|-3-----5------7----3--------------------------------|
|-------3------5----1--------------------------------|


Chorus Pt. 2 (accent muted)
      F                     G
|--------------------|
|--------------------|
|--------------------|
|--3---------5-------|
|--3---------5-------|
|--1---------3-------|

Bridge
    Amin    C        F       G
|---0-------1---3---------------|
|---1---5---1---3---------------|
|---2---5---2---4---------------|
|---2---5---3---5---------------|
|---0---3---3---5---------------|
|-----------1---3---------------|

Solo
i lost my 2nd page when it begins but i have the part when luis comes in.
|----10-12--------------------------12--13-12-15(vibrato|
|--13-----13--13-12-13---12-13-15-13--15----------------|
|-----------10--------12--------------------------------|
|-------------------------------------------------------|
|-------------------------------------------------------|
|-------------------------------------------------------|

you have the main idea. if i find my first solo page ill tab it.
Related for Breaking Tides - Take Me Away tab
Advertisement will be closed in 10 seconds