Song name
# A B C D E F G H I J K L M N O P Q R S T U V W X Y Z

Misc Unsigned Bands - Last Obsession - Escape Plan tab

Well Guys this is the best weve got so far it's work in progress I will add more when we 
finnished the song.

|-----------------|
|-----------------|
|-9------9------9-|
|-9------9------9-|
|-7------7------7-|
|-----------------|


|-----------------------------------|
|-----------------------------------|
|-----------------------------------|
|---9--------7-------5--------------|
|---9-(x16)--7-(x16)-5-(x16)--------|
|---7--------5-------3--------------|

|-----------------------------------|
|-----------------------------------|
|-----------------------------------|
|--4-------2------------------------|
|--4-(x4)--2-(x4)-------------------|
|--2-------0------------------------|
 Repeat those twice
 When We have the rest sorted out ill tab it thanks
Tap to rate this tab
# A B C D E F G H I J K L M N O P Q R S T U V W X Y Z