Song name
# A B C D E F G H I J K L M N O P Q R S T U V W X Y Z

Misc Unsigned Bands - Manfuel - Flying On A Unicorn tab

         Flying On A Unicorn- By Man*Fuel
 This is a Fun song to play. It is very catchy,-the music that is, not the words so much.
Well Enjoy it!!(and good luck!) Tabbed by User: ACDCrox74

To hear this song, click here: http://artists.ultimate-guitar.com/manfuel/
When there, at the mp3's play flying ona unicorn. 
Enjoy!!

Legend:
b=bend
h=hammer on
p= pull off
/=slide
P.M.=palm mute
>=pick slide
w=wah-wah
~=vibrato

Play Moderately Fast
Use Heavy distortion
Standard tuning
 You can still play this song even if you dont have a wah-wah pedal. Just use a whammy
you have one) or try to make a "wah"sound. Wah is only used in solo.

 Intro (Both guitars 1 and 2 at the same time)

e|-17b-p16-h17-p16-h17-p16------17b-p16-h17-p16-h17-p16-----------|
B|-------------------------h17--------------------------h17-------|
G|----------------------------------------------------------------|
D|----------------------------------------------------------------|
A|----------------------------------------------------------------|
E|----------------------------------------------------------------|

e|-15b-p14-h15-p14-h15-p14------15b-p14-h15-p14-h15-p14-----------|
B|------------------------h15---------------------------h15-------|
G|----------------------------------------------------------------|
D|----------------------------------------------------------------|
A|----------------------------------------------------------------|
E|----------------------------------------------------------------|

e|-12b-p11-h12-p11-h12-p11----------------------------------------|
B|------------------------h12--12-p11-h12-p11-h12-p11-------------|
G|---------------------------------------------------h11----------|
D|--------------------------------------------------------12/10/9-|
A|----------------------------------------------------------------|
E|----------------------------------------------------------------|

For this next part it is all hammer-ons and pull-offs, so never strum for this part...
1 and 2 both do this together for 10 times.
e|---------------------------------------|
B|---------------------------------------|
G|---------h11-p9-----h11-p9-------------|-This is called RIFF A
D|-9-h11-p9-----h11-p9-------------------|
A|---------------------------------------|
E|---------------------------------------|

Now the guitars start doing different pieces. Guitar 2 continues on Riff A while guitar 
does this:
e|-----------------------------------------------------------------|
B|-----------------------------------------------------------------|
G|-11----------/9-/7-----------------------------------------------|
D|-9(let ring)-/7-/5--5--------------------------------------------|
A|--------------------3--------------------------------------------|
E|------------------------>>>>>>>>>>>>>>>>>>>>>>>>>>>>>>>>>>>>>----|

At the end of the pick slide guitar 2 does this little riff on the bottom 2 strings:
e|-12-p11-h12-14-p12-11---- (let that last note ring out--|
A|----------------------12-(<--------------/)-------------|

Verse 1 starts now, while last note still rings.
*Words are sang exactly as they are written above each tab.*

            "When I saw her in the pasture..."
Guitar 1:
e|--------------------------------------------------------------|
B|--------------------------------------------------------------|
G|--------------------------------------------------------------|
D|---------------(PALM MUTED WHOLE TIME)------------------------|
A|-5-P.M.-5-5-5-5-5-5-5-5-5-5-5-5-5-5-5-5-5-5-5-5-5-5-5-5-5-5-5-|
E|-3-P.M.-3-3-3-3-3-3-3-3-3-3-3-3-3-3-3-3-3-3-3-3-3-3-3-3-3-3-3-|
  Guitar 2 lets go of last note and does this after "pasture...":
e|-11-12--14-(<----\-|
B|-------------------|(let that note ring again like last time)

             "She was as white as could be..."
Guitar 1:
e|--------------------------------------------------------------|
B|--------------------------------------------------------------|
G|--------------------------------------------------------------|
D|--------------(PALM MUTED WHOLE TIME)-------------------------|
A|-7-P.M.-7-7-7-7-7-7-7-7-7-7-7-7-7-7-7-7-7-7-7-7-7-7-7-7-7-7-7-|
E|-5-P.M.-5-5-5-5-5-5-5-5-5-5-5-5-5-5-5-5-5-5-5-5-5-5-5-5-5-5-5-|
  Guitar 2 lets go of last note and does this after "be...":
e|-14-/16-(<----------\-|
B|----------------------|(let that note ring again like the last two times
          "And she only had one horn..."          "And it was staring at me"
Guitar 1:
e|-----------------------------------------------------------------------|
B|-----------------------------------------------------------------------|
G|-----------------------------------------------------------------------|
D|---------------------------------------------------------/Palm Muted\--|
A|-9-P.M.-9-9-9-9-9-9-9-9-9-9-9-9-9-9-9-9-9-9-9-P.M.--12--P.M.-12-12-12--|
E|-7-P.M.-7-7-7-7-7-7-7-7-7-7-7-7-7-7-7-7-7-7-7-P.M.--10--P.M.-10-10-10--|
       ^--------------------\   /----------------------------------------|
Palm mute only from the two "P.M.'s"
  When guitar 1 starts the 12 palm  muting on  A|12 E|10  guitar 2 will let go of that
note and:  e|-16-16---16b-   (dont let ring this time)
  Now we are back to the dueling guitars, so guitar 1 and 2 do:

Chorus:
e|-------------------------------------------------------------------------|
B|-------------------------------------------------------------------------|
G|-------------------------------------------------------------------------|
D|----------------------------------------------------------------------12-|
A|-12-12-12-12-12-12-12-12-12-12-12-12-12-12-12-12-12-12-12-12-12-12-12-12-|
E|-10-10-10-10-10-10-10-10-10-10-10-10-10-10-10-10-10-10-10-10-10-10-10-10-|

For these next parts (and above), pick/stroke up and down EXTREMELY fast. No palm
pieces should be done in about 4 seconds. You just have to strum up and down repeaditly 
Fast!

e|-------------------------------------------------------------------------|
B|-------------------------------------------------------------------------|
G|--------------(Same rules apply as did for above)------------------------|
D|-----------------------------------------------------------------------5-|
A|-5-5-5-5-5-5-5-5-5-5-5-5-5-5-5-5-5-5-5-5-5-5-5-5-5-5-5-5-5-5-5-5-5-5-5-5-|
E|-3-3-3-3-3-3-3-3-3-3-3-3-3-3-3-3-3-3-3-3-3-3-3-3-3-3-3-3-3-3-3-3-3-3-3-3-|

e|-------------------------------------------------------------------------|
B|-------------------------------------------------------------------------|
G|----------------------(Still same rules)---------------------------------|
D|-----------------------------------------------------------------------7-|
A|-7-7-7-7-7-7-7-7-7-7-7-7-7-7-7-7-7-7-7-7-7-7-7-7-7-7-7-7-7-7-7-7-7-7-7-7-|
E|-5-5-5-5-5-5-5-5-5-5-5-5-5-5-5-5-5-5-5-5-5-5-5-5-5-5-5-5-5-5-5-5-5-5-5-5-|

e|-------------------------------------------------------------------------|
B|-------------------------------------------------------------------------|
G|----------------------(Still same rules)---------------------------------|
D|-----------------------------------------------------------------------9-|
A|-9-9-9-9-9-9-9-9-9-9-9-9-9-9-9-9-9-9-9-9-9-9-9-9-9-9-9-9-9-9-9-9-9-9-9-9-|
E|-7-7-7-7-7-7-7-7-7-7-7-7-7-7-7-7-7-7-7-7-7-7-7-7-7-7-7-7-7-7-7-7-7-7-7-7-|

e|-------------------------------------------------------------------------|
B|-------------------------------------------------------------------------|
G|-----------------------(Same rules...)-----------------------------------|
D|-------------------------------------------------------------------------|
A|12-12-12-12-12-12-12-12-12-14-14-14-14-14-16-16-16--20-20-20-------12-12-|
E|10-10-10-10-10-10-10-10-10-12-12-12-12-12-14-14-14--20-20-20-21/12-10-10-|

 Words start now...  (the whole chorus so far should have only been around 22 seconds)
rules as they were above go for below. Words are sang exactly as written above the words
2 guitars doing same thing)

                 "You could ride the pony..."
e|-------------------------------------------------------------------------|
B|-------------------------------------------------------------------------|
G|-------------------------------------------------------------------------|
D|----------------------------------------------------------------------12-|
A|-12-12-12-12-12-12-12-12-12-12-12-12-12-12-12-12-12-12-12-12-12-12-12-12-|
E|-10-10-10-10-10-10-10-10-10-10-10-10-10-10-10-10-10-10-10-10-10-10-10-10-|

              "But you cant ride up to the clouds..."
e|-------------------------------------------------------------------------|
B|-------------------------------------------------------------------------|
G|-------------------------------------------------------------------------|
D|-----------------------------------------------------------------------5-|
A|-5-5-5-5-5-5-5-5-5-5-5-5-5-5-5-5-5-5-5-5-5-5-5-5-5-5-5-5-5-5-5-5-5-5-5-5-|
E|-3-3-3-3-3-3-3-3-3-3-3-3-3-3-3-3-3-3-3-3-3-3-3-3-3-3-3-3-3-3-3-3-3-3-3-3-|

                "But if you fly the unicorn..."
e|-------------------------------------------------------------------------|
B|-------------------------------------------------------------------------|
G|-------------------------------------------------------------------------|
D|-----------------------------------------------------------------------7-|
A|-7-7-7-7-7-7-7-7-7-7-7-7-7-7-7-7-7-7-7-7-7-7-7-7-7-7-7-7-7-7-7-7-7-7-7-7-|
E|-5-5-5-5-5-5-5-5-5-5-5-5-5-5-5-5-5-5-5-5-5-5-5-5-5-5-5-5-5-5-5-5-5-5-5-5-|
              "Zeus will lead you the way..."
e|-------------------------------------------------------------------------|
B|-------------------------------------------------------------------------|
G|-------------------------------------------------------------------------|
D|-----------------------------------------------------------------------9-|
A|-9-9-9-9-9-9-9-9-9-9-9-9-9-9-9-9-9-9-9-9-9-9-9-9-9-9-9-9-9-9-9-9-9-9-9-9-|
E|-7-7-7-7-7-7-7-7-7-7-7-7-7-7-7-7-7-7-7-7-7-7-7-7-7-7-7-7-7-7-7-7-7-7-7-7-|
  "Cos we were... Flying on A Unicorn!"
e|-------------------------------------------------------------------------|
B|-------------------------------------------------------------------------|
G|-------------------------------------------------------------------------|
D|-------------------------------------------------------------------------|
A|12-12-12-12-12-12----------------14-14-14-16-16-16--20-20-20-------12-12-|
E|10-10-10-10-10-10----------------12-12-12-14-14-14--18-18-20-21/12-10-10-|

                                                      "Flying On A Unicorn!"
e|--------------------------------------------------------|
B|--------------------------------------------------------|
G|--------------------------------------------------------|
D|--------------------------------------------------------| Rules change now,
A|-12-12-12-12-12-14-14-14-14-16-16-16-20-20-20-------12--| No more super-fast
E|-10-10-10-10-10-12-12-12-12-14-14-14-18-18-20-21/12-10--| picking. Back to regular strumming.

 Solo 1(Guitar 2):
This is the first (1 of 2) solos. both guitars will do this next part before guitar 2
the solo. so after "Unicorn" do:
e|------------------------|
B|------------------------|
G|------------------------| Now the solo will actually start (after guitar 1
D|-12-12--/-5-5-5-5-5-5---| played what is to the left) Play the two
A|-10-10--/-3-3-3-3-3-3-5-| guitar parts how they are lined up. They are
E|----------------------3-| played exactly how they are lined up in the song.
They are also played at the same time. so even if guitar 1 is above the guitar 2 tab,
are played at the same time.=Guitar 1 is above while Guitar 2 is right below. Try not to
'em up.
  Guitar 1:
e|-------------------------------------------------------------------------|
B|-------------------------------------------------------------------------|
G|-------------------------------------------------------------------------|
D|------------------(PALM MUTED WHOLE TIME)--------------------------------|
A|P.M.-5-5-5-5-5-5-5-5-5-5-5-5-5-5-5-5-5-5-5-5-5-5-5-5-5-5-5-5-5-5-5-5-5-5-|
E|P.M.-3-3-3-3-3-3-3-3-3-3-3-3-3-3-3-3-3-3-3-3-3-3-3-3-3-3-3-3-3-3-3-3-3-3-|

Guitar 2:
e|--------------------------------------------------------------------8/11-|
B|------------------------------------------------------------------10~----|
G|--------------------------------------------------10b-9-10-9-10----------|
D|-------------------------------12b-11-12-11-12-----------------h10-------|
A|-----------12b-11-12-11-12--------------------h12------------------------|
E|--------------------------h12--------------------------------------------|

Guitar 1:
e|-------------------------------------------------------------------------|
B|-------------------------------------------------------------------------|
G|-------------------------------------------------------------------------|
D|-----------------(PALM MUTED WHOLE TIME)---------------------------------|
A|P.M.-7-7-7-7-7-7-7-7-7-7-7-7-7-7-7-7-7-7-7-7-7-7-7-7-7-7-7-7-7-7-7-7-7-7-|
E|P.M.-5-5-5-5-5-5-5-5-5-5-5-5-5-5-5-5-5-5-5-5-5-5-5-5-5-5-5-5-5-5-5-5-5-5-|

Guitar 2:
e|----------12b-11-12-11-12-14-12-11---11-12-14--14-15-17--17/19--19/21----|
B|----------------------------------h12------------------------------------|
G|-------------------------------------------------------------------------|
D|-------------------------------------------------------------------------|
A|-------------------------------------------------------------------------|
E|-------------------------------------------------------------------------|

Guitar 1:
e|-------------------------------------------------------------------------|
B|-------------------------------------------------------------------------|
G|-------------------------------------------------------------------------|
D|-----------------(PALM MUTED WHOLE TIME)---------------------------------|
A|P.M.-9-9-9-9-9-9-9-9-9-9-9-9-9-9-9-9-9-9-9-9-9-9-9-9-9-9-9-9-9-9-9-9-9-9-|
E|P.M.-7-7-7-7-7-7-7-7-7-7-7-7-7-7-7-7-7-7-7-7-7-7-7-7-7-7-7-7-7-7-7-7-7-7-|

Guitar 2:
e|-15-h21-p15-h20-p15-h19-p15-h18-p15-h17-p15-h16-p15-13-12-10--9--8-7-6-5--|
B|------------------------------------------------------------11-10-9-8-7-6-|
G|----------(^play the part above REALLY fast^)-----------------------------|
D|--------------------------------------------------------------------------|
A|--------------------------------------------------------------------------|
E|--------------------------------------------------------------------------|

Guitar 1:
e|---------------------------------------------------------|
B|---------------------------------------------------------|
G|---------------------------------------------------------|
D|---------------------------------------------------------|
A|-P.M.-12-X12-12-12-X-12-X-12-12X-12-X12-12-X12-12--------|
E|-P.M.-10-X10-10-10-X-10-X-10-10X-10-X10-10-X10-10--------|
(^palm mute only where x's are.)

Guitar 2:(continued from above-Dont stop from the last guitar 2 part)
e|-4-b3~(let ring)----------------------------------|
B|--3-----------------------------------------------|
G|--------------------------------------------------|
D|--------------------------------------------------|(let below ring until guitar 1 is
A|-------------------------------------12-----------| done)
E|-------------------------------------10-----------|

Chorus:
(Super-fast up and down picking again.-Both Guitars.)
e|----------------------------------------------------------------------|
B|----------------------------------------------------------------------|
G|----------------------------------------------------------------------|
D|----------------------------------------------------------------------|
A|-5-5-5-5-5-5-5-5-5-5-/7-7-7-7-7-7-7-7-7-/9-9-9-9-9-9-9-9-/12-12-12-12-|
E|-3-3-3-3-3-3-3-3-3-3-/5-5-5-5-5-5-5-5-5-/7-7-7-7-7-7-7-7-/10-10-10-10-|

           "You could ride the pony..."
e|-------------------------------------------------------------------------|
B|-------------------------------------------------------------------------|
G|-------------------------------------------------------------------------|
D|----------------------------------------------------------------------12-|
A|-12-12-12-12-12-12-12-12-12-12-12-12-12-12-12-12-12-12-12-12-12-12-12-12-|
E|-10-10-10-10-10-10-10-10-10-10-10-10-10-10-10-10-10-10-10-10-10-10-10-10-|

              "But you cant ride up to the clouds..."
e|-------------------------------------------------------------------------|
B|-------------------------------------------------------------------------|
G|-------------------------------------------------------------------------|
D|-----------------------------------------------------------------------5-|
A|-5-5-5-5-5-5-5-5-5-5-5-5-5-5-5-5-5-5-5-5-5-5-5-5-5-5-5-5-5-5-5-5-5-5-5-5-|
E|-3-3-3-3-3-3-3-3-3-3-3-3-3-3-3-3-3-3-3-3-3-3-3-3-3-3-3-3-3-3-3-3-3-3-3-3-|

                "But if you fly the unicorn..."
e|-------------------------------------------------------------------------|
B|-------------------------------------------------------------------------|
G|-------------------------------------------------------------------------|
D|-----------------------------------------------------------------------7-|
A|-7-7-7-7-7-7-7-7-7-7-7-7-7-7-7-7-7-7-7-7-7-7-7-7-7-7-7-7-7-7-7-7-7-7-7-7-|
E|-5-5-5-5-5-5-5-5-5-5-5-5-5-5-5-5-5-5-5-5-5-5-5-5-5-5-5-5-5-5-5-5-5-5-5-5-|
              "Zeus will lead you the way..."
e|-------------------------------------------------------------------------|
B|-------------------------------------------------------------------------|
G|-------------------------------------------------------------------------|
D|-----------------------------------------------------------------------9-|
A|-9-9-9-9-9-9-9-9-9-9-9-9-9-9-9-9-9-9-9-9-9-9-9-9-9-9-9-9-9-9-9-9-9-9-9-9-|
E|-7-7-7-7-7-7-7-7-7-7-7-7-7-7-7-7-7-7-7-7-7-7-7-7-7-7-7-7-7-7-7-7-7-7-7-7-|
  "Cos we were... Flying on A Unicorn!"
e|-------------------------------------------------------------------------|
B|-------------------------------------------------------------------------|
G|-------------------------------------------------------------------------|
D|-------------------------------------------------------------------------|
A|12-12-12-12-12-12----------------14-14-14-16-16-16--20-20-20-------12-12-|
E|10-10-10-10-10-10----------------12-12-12-14-14-14--18-18-20-21/12-10-10-|

                                                      "Flying On A Unicorn!"
e|-------------------------------------------------------|
B|-------------------------------------------------------|
G|-------------------------------------------------------|
D|-------------------------------------------------------|(After the chorus,
A|-12-12-12-12-12-14-14-14-14-16-16-16-20-20-20-------12-| go back to regular
E|-10-10-10-10-10-12-12-12-12-14-14-14-18-18-20-21/12-10-| strumming.)
              After "Flying On A Unicorn" do a pick slide.>>>>>>(guitar 2)
Verse 2:
        "When the unicorn takes you to the sky..."
Guitar 1:
e|--------------------------------------------------------------------------|
B|--------------------------------------------------------------------------|(<-Guitar 1 
that
G|--------------------------------------------------------------------------|while 
 does:
D|---------(PALM MUTED WHOLE TIME)----------------------(e|-12-h14-p12-h15--|b)
A|-5-P.M.-5-5-5-5-5-5-5-5-5-5-5-5-5-5-5-5-5-5-5-5-5-5-5---------------------|(Guitar 2 does^that
E|-3-P.M.-3-3-3-3-3-3-3-3-3-3-3-3-3-3-3-3-3-3-3-3-3-3-3---------------------|(after "sky..."

          "He'll drop you off in the clouds"
Guitar 1:
e|-------------------------------------------------------|
B|-------------------------------------------------------|
G|-------------------------------------------------------|
D|---------(PALM MUTED WHOLE TIME)-----------------------|
A|-7-P.M.-7-7-7-7-7-7-7-7-7-7-7-7-7-7-7-7-7-7-7-7-7-7-7--|
E|-5-P.M.-5-5-5-5-5-5-5-5-5-5-5-5-5-5-5-5-5-5-5-5-5-5-5--|
Guitar 2 does: e|15-12-14-13-12-16b-(hold "16------------|)
                                ^Do that after "clouds..."
   "God will free the angels..."         "And zeus will be waiting there..."
e|--------------------------------------------------------------------------|
B|--------------------------------------------------------------------------|
G|--------------------------------------------------------------------------|
D|--------------------------------------------------------------------------|
A|-9-9-9-9-9-9-9-9-9-9-9-9-9-9-9-9-9---12-12-12--------------------------12-|
E|-7-7-7-7-7-7-7-7-7-7-7-7-7-7-7-7-7---10-10-10--------------------------10-|
    \....palm muted here......./

Chorus:
(super-fast picking again.-Both Guitars.)
e|----------------------------------------------------------------------|
B|----------------------------------------------------------------------|
G|----------------------------------------------------------------------|
D|----------------------------------------------------------------------|
A|-5-5-5-5-5-5-5-5-5-5-/7-7-7-7-7-7-7-7-7-/9-9-9-9-9-9-9-9-/12-12-12-12-|
E|-3-3-3-3-3-3-3-3-3-3-/5-5-5-5-5-5-5-5-5-/7-7-7-7-7-7-7-7-/10-10-10-10-|

"You could ride the pony..."
e|-------------------------------------------------------------------------|
B|-------------------------------------------------------------------------|
G|-------------------------------------------------------------------------|
D|----------------------------------------------------------------------12-|
A|-12-12-12-12-12-12-12-12-12-12-12-12-12-12-12-12-12-12-12-12-12-12-12-12-|
E|-10-10-10-10-10-10-10-10-10-10-10-10-10-10-10-10-10-10-10-10-10-10-10-10-|

              "But you cant ride up to the clouds..."
e|-------------------------------------------------------------------------|
B|-------------------------------------------------------------------------|
G|-------------------------------------------------------------------------|
D|-----------------------------------------------------------------------5-|
A|-5-5-5-5-5-5-5-5-5-5-5-5-5-5-5-5-5-5-5-5-5-5-5-5-5-5-5-5-5-5-5-5-5-5-5-5-|
E|-3-3-3-3-3-3-3-3-3-3-3-3-3-3-3-3-3-3-3-3-3-3-3-3-3-3-3-3-3-3-3-3-3-3-3-3-|

                "But if you fly the unicorn..."
e|-------------------------------------------------------------------------|
B|-------------------------------------------------------------------------|
G|-------------------------------------------------------------------------|
D|-----------------------------------------------------------------------7-|
A|-7-7-7-7-7-7-7-7-7-7-7-7-7-7-7-7-7-7-7-7-7-7-7-7-7-7-7-7-7-7-7-7-7-7-7-7-|
E|-5-5-5-5-5-5-5-5-5-5-5-5-5-5-5-5-5-5-5-5-5-5-5-5-5-5-5-5-5-5-5-5-5-5-5-5-|
              "Zeus will lead you the way..."
e|-------------------------------------------------------------------------|
B|-------------------------------------------------------------------------|
G|-------------------------------------------------------------------------|
D|-----------------------------------------------------------------------9-|
A|-9-9-9-9-9-9-9-9-9-9-9-9-9-9-9-9-9-9-9-9-9-9-9-9-9-9-9-9-9-9-9-9-9-9-9-9-|
E|-7-7-7-7-7-7-7-7-7-7-7-7-7-7-7-7-7-7-7-7-7-7-7-7-7-7-7-7-7-7-7-7-7-7-7-7-|
  "Cos we were... Flying on A Unicorn!"
e|-------------------------------------------------------------------------|
B|-------------------------------------------------------------------------|
G|-------------------------------------------------------------------------|
D|-------------------------------------------------------------------------|
A|12-12-12-12-12-12----------------14-14-14-16-16-16--20-20-20-------12-12-|
E|10-10-10-10-10-10----------------12-12-12-14-14-14--18-18-20-21/12-10-10-|

                                                      "Flying On A Unicorn!"
e|-------------------------------------------------------|
B|-------------------------------------------------------|
G|-------------------------------------------------------|
D|-------------------------------------------------------|(After the chorus,
A|-12-12-12-12-12-14-14-14-14-16-16-16-20-20-20-------12-| go back to regular
E|-10-10-10-10-10-12-12-12-12-14-14-14-18-18-20-21/12-10-| strumming.)

Solo: (2nd solo now-Guitar 1)
Both Guitars:
e|--------------------------------------------------------|
B|--------------------------------------------------------|
G|--------------------------------------------------------|Not P.M.
D|-----------(PALM MUTED WHOLE TIME)----------------\/----|
A|P.M.-5-5-5-5-5-5-5-5-5-5-5-5-5-5-5-5-5-5-5-5-5----5-----|Let that note ring.)
E|P.M.-3-3-3-3-3-3-3-3-3-3-3-3-3-3-3-3-3-3-3-3-3----3-----|Let that note ring.)
Same rules apply as first solo; Guitar 2 is on top, Guitar 1 is on the bottom, but they
played at the same time. Solo actually starts now...

Guitar 2:
e|----------------------------------------------------------------------|
B|----------------------------------------------------------------------|
G|----------------------------------------------------------------------|
D|------------(Palm muted throughthe 2 P.M.'S)--------------------------|
A|-12b---P.M.-5-5-5-5-5-5-5-5-5-5-5-5-5-5-5-5-5-5-5-5-5-5-5-5-5-5-5-5-5-|
E|-10b---P.M.-3-3-3-3-3-3-3-3-3-3-3-3-3-3-3-3-3-3-3-3-3-3-3-3-3-3-3-3-3-|

Guitar 1: (ooh yaa... waa-waah time! t= means tap)
e|------------------------------h14bw---------------------------------------|
B|----------1/12bw-12w-h14w-p12-----12w-h14w-p12/1-/10-h13pw-10-t18wh13wp10-|
G|--------------------------------------------------------------------------|
D|--------------------------------------------------------------------------|
A|--------------------------------------------------------------------------|
E|--------------------------------------------------------------------------|

Guitar 2:
e|--------------------------------------------------------------------------|
B|--------------------------------------------------------------------------|
G|--------------------------------------------------------------------------|
D|---------(PALM MUTED WHOLE TIME)------------------------------------------|
A|-7-P.M.-7-7-7-7-7-7-7-7-7-7-7-7-7-7-7-7-7-7-7-7-7-7-7-7-7-7-7-7-7-7-7-7-7-|
E|-5-P.M.-5-5-5-5-5-5-5-5-5-5-5-5-5-5-5-5-5-5-5-5-5-5-5-5-5-5-5-5-5-5-5-5-5-|

Guitar 1:
e|--------------------------------------------------------------------------|
B|-h13wp10wt18wp10wh13p10t18wp10wh13p10wt18ww-10b13~wwt17pw10hw13wp10wt17w--|
G|--------------------------------------------------------------------------|
D|--------------------------------------------------------------------------|
A|--------------------------------------------------------------------------|
E|--------------------------------------------------------------------------|

Guitar 2:
e|--------------------------------------------------------------------------|
B|--------------------------------------------------------------------------|
G|--------------------------------------------------------------------------|
D|---------(PALM MUTED WHOLE TIME)------------------------------------------|
A|-9-P.M.-9-9-9-9-9-9-9-9-9-9-9-9-9-9-9-9-9-9-9-9-9-9-9-9-9-9-9-9-9-9-9-9-9-|
E|-7-P.M.-7-7-7-7-7-7-7-7-7-7-7-7-7-7-7-7-7-7-7-7-7-7-7-7-7-7-7-7-7-7-7-7-7-|

Guitar 1:
e|--------------------------------------------------------------------------
B|-p10wh13p10w~t17wp10wh13wt15wwp10wh13p10wt15wwp10wh13p10wt15wwp10wh13wp14-
G|--------------------------------------------------------------------------|
D|--------------------------------------------------------------------------|
A|--------------------------------------------------------------------------|
E|--------------------------------------------------------------------------|

Guitar 2:
e|---------------------------------------------------------------------------|
B|---------------------------------------------------------------------------|
G|---------------------------------------------------------------------------|
D|----------(PALM MUTED WHOLE TIME)------------------------------------------|
A|-P.M.-12-12-12-12-12-12-12-12-12-12-12-12-12-12-12-12-12-12-12-12-12-12----|
E|-P.M.-10-10-10-10-10-10-10-10-10-10-10-10-10-10-10-10-10-10-10-10-10-10----|

Guitar 1:
e|-------------------------------------------------------------12bwh14wp12w-|
B|-wwp10h13tw14wp10wh13p10wt13wh13wp10w~www-(13b~)/0w/12wh14wp12w-----------|
G|--------------------------------------------------------------------------|
D|--------------------------------------------------------------------------|
A|--------------------------------------------------------------------------|
E|--------------------------------------------------------------------------|

Guitar 2:
e|--------------------------------------------------------------------------|
B|--------------------------------------------------------------------------|
G|--------------------------------------------------------------------------|
D|--------------------------------------------------------------------------|
A|-P.M.-5-X12-12-12-X-12-X-12-12X-12-7-X12-12-X12-12-X12-12-X12-9-12-X12-12-|
E|-P.M.-3-X10-10-10-X-10-X-10-10X-10-5-X10-10-X10-10-X10-10-X10-7-10-X10-10-|
^Palm Mute only where X's are.

Guitar 1:
e|--------------12bwh14wp12w------------12b2h14p12w----------w12h15p12w-1/12-|
B|-w12~h14p12ww--------------h12wp14wh12w----------12wh15p12w--------12/1----|
G|-------------------------------------------------(^x2              ^)------|
D|---------------------------------------------------------------------------|
A|---------------------------------------------------------------------------|
E|---------------------------------------------------------------------------|

Chorus: (fast picking)
Guitar 1:
e|----12-12-12-12-12-12-12-12-12-12-12-12-12-12-12-12-12-12-12-12-12-12-12-
Guitar 2:
e|-------------------------------------------------------------------------|
B|-------------------------------------------------------------------------|
G|-------------------------------------------------------------------------|
D|----------------------------------------------------------------------12-|
A|-12-12-12-12-12-12-12-12-12-12-12-12-12-12-12-12-12-12-12-12-12-12-12-12-|
E|-10-10-10-10-10-10-10-10-10-10-10-10-10-10-10-10-10-10-10-10-10-10-10-10-|

Guitar 1:
e|----3-3-3-3-3-3-3-3-3-3-3-3-3-3-3-3-3-3-3-3-3-3-3-3-3-3-3-3-3-3-3-3-3-3--
Guitar 2:
e|-------------------------------------------------------------------------|
B|-------------------------------------------------------------------------|
G|-------------------------------------------------------------------------|
D|-----------------------------------------------------------------------5-|
A|-5-5-5-5-5-5-5-5-5-5-5-5-5-5-5-5-5-5-5-5-5-5-5-5-5-5-5-5-5-5-5-5-5-5-5-5-|
E|-3-3-3-3-3-3-3-3-3-3-3-3-3-3-3-3-3-3-3-3-3-3-3-3-3-3-3-3-3-3-3-3-3-3-3-3-|

Guitar 1:
e|----5-5-5-5-5-5-5-5-5-5-5-5-5-5-5-5-5-5-5-5-5-5-5-5-5-5-5-5-5-5-5-5-5-5--
Guitar 2:
e|-------------------------------------------------------------------------|
B|-------------------------------------------------------------------------|
G|-------------------------------------------------------------------------|
D|-----------------------------------------------------------------------7-|
A|-7-7-7-7-7-7-7-7-7-7-7-7-7-7-7-7-7-7-7-7-7-7-7-7-7-7-7-7-7-7-7-7-7-7-7-7-|
E|-5-5-5-5-5-5-5-5-5-5-5-5-5-5-5-5-5-5-5-5-5-5-5-5-5-5-5-5-5-5-5-5-5-5-5-5-|

Guitar 1:
e|----7-7-7-7-7-7-7-7-7-7-7-7-7-7-7-7-7-7-7-7-7-7-7-7-7-7-7-7-7-7-7-7-7-7--
Guitar 2:
e|-------------------------------------------------------------------------|
B|-------------------------------------------------------------------------|
G|-------------------------------------------------------------------------|
D|-----------------------------------------------------------------------9-|
A|-9-9-9-9-9-9-9-9-9-9-9-9-9-9-9-9-9-9-9-9-9-9-9-9-9-9-9-9-9-9-9-9-9-9-9-9-|
E|-7-7-7-7-7-7-7-7-7-7-7-7-7-7-7-7-7-7-7-7-7-7-7-7-7-7-7-7-7-7-7-7-7-7-7-7-|
Guitar 1:
e|----9-9-10-10-10-10-10-12-12-12-12-12-12-14-14-16-20-20-20-22/12~-------
Guitar 2:
e|-------------------------------------------------------------------------|
B|-------------------------------------------------------------------------|
G|-------------------------------------------------------------------------|
D|-------------------------------------------------------------------------|
A|12-12-12-12-12-12-12-12-12-14-14-14-14-14-16-16-16--20-20-20-------12-12-|
E|10-10-10-10-10-10-10-10-10-12-12-12-12-12-14-14-14--20-20-20-21/12-10-10-|

 Words start now...

                 "You could ride the pony..."
Guitar 1: e|-----------------------------------12b-12b-12b-12-10~-(<-hold note)
Guitar 2:
e|-------------------------------------------------------------------------|
B|-------------------------------------------------------------------------|
G|-------------------------------------------------------------------------|
D|----------------------------------------------------------------------12-|
A|-12-12-12-12-12-12-12-12-12-12-12-12-12-12-12-12-12-12-12-12-12-12-12-12-|
E|-10-10-10-10-10-10-10-10-10-10-10-10-10-10-10-10-10-10-10-10-10-10-10-10-|

            "But you cant ride up to the clouds..."
Guitar 1: e|-----------------------------------------9b-p7-h9wwww-(<-hold note)
Guitar 2:
e|-------------------------------------------------------------------------|
B|-------------------------------------------------------------------------|
G|-------------------------------------------------------------------------|
D|-----------------------------------------------------------------------5-|
A|-5-5-5-5-5-5-5-5-5-5-5-5-5-5-5-5-5-5-5-5-5-5-5-5-5-5-5-5-5-5-5-5-5-5-5-5-|
E|-3-3-3-3-3-3-3-3-3-3-3-3-3-3-3-3-3-3-3-3-3-3-3-3-3-3-3-3-3-3-3-3-3-3-3-3-|

              "But if you fly the unicorn..."
Guitar 1: e|--------------------------------7-p5-h7-p5-h7-p5-h9b-(<-hold note)
Guitar 2:
e|-------------------------------------------------------------------------|
B|-------------------------------------------------------------------------|
G|-------------------------------------------------------------------------|
D|-----------------------------------------------------------------------7-|
A|-7-7-7-7-7-7-7-7-7-7-7-7-7-7-7-7-7-7-7-7-7-7-7-7-7-7-7-7-7-7-7-7-7-7-7-7-|
E|-5-5-5-5-5-5-5-5-5-5-5-5-5-5-5-5-5-5-5-5-5-5-5-5-5-5-5-5-5-5-5-5-5-5-5-5-|
              "Zeus will lead you the way..."
Guitar 1: e|-------------------------------5-p3-h5/14-p12-h14/16~-(<-hold note)
Guitar 2:
e|-------------------------------------------------------------------------|
B|-------------------------------------------------------------------------|
G|-------------------------------------------------------------------------|
D|-----------------------------------------------------------------------9-|
A|-9-9-9-9-9-9-9-9-9-9-9-9-9-9-9-9-9-9-9-9-9-9-9-9-9-9-9-9-9-9-9-9-9-9-9-9-|
E|-7-7-7-7-7-7-7-7-7-7-7-7-7-7-7-7-7-7-7-7-7-7-7-7-7-7-7-7-7-7-7-7-7-7-7-7-|
  "Cos we were... Flying on A Unicorn!"
Guitar 1: e|---------------------------14-14-14-14--16-16-18-18-20-22/12--

Guitar 2:
e|-------------------------------------------------------------------------|
B|-------------------------------------------------------------------------|
G|-------------------------------------------------------------------------|
D|-------------------------------------------------------------------------|
A|12-12-12-12-12-12----------------14-14-14-16-16-16--20-20-20-------12-12-|
E|10-10-10-10-10-10----------------12-12-12-14-14-14--18-18-20-21/12-10-10-|

                                                      "Flying On A Unicorn!"
Guitar 1: e|-12-12/14-14b-14b-14-h16-16-16-18-20-22/12---
Guitar 2:
e|-------------------------------------------------------|
B|-------------------------------------------------------|
G|-------------------------------------------------------|
D|-------------------------------------------------------|
A|-12-12-12-12-12-14-14-14-14-16-16-16-20-20-20-------12-|
E|-10-10-10-10-10-12-12-12-12-14-14-14-18-18-20-21/12-10-|

Outro: (both guitars)
e|--12-12-12--10-10-10--8-8-8-----12-----12--8-8-8--10-10-10--12-12-12-----|
B|----------------------------10b--------------------------------------10b-|
G|-------------------------------------------------------------------------|
D|-------------------------------------------------------------------------|
A|-------------------------------------------------------------------------|
E|-------------------------------------------------------------------------|

e|--12/////0----|
B|--------------|
G|--------------|
D|------------2-|
A|------------2-|
E|------------0-|

 Now Is when you put your guitar down, and run on to the stage monitor, jump up and down
few times... And Finally... STAGE DIVE!
(But first make sure the croud is willing to catch you)
 Enjoy! Please comment and rate!!
Tap to rate this tab
 
# A B C D E F G H I J K L M N O P Q R S T U V W X Y Z