Song name
# A B C D E F G H I J K L M N O P Q R S T U V W X Y Z

Misc Unsigned Bands - Nathan Byers - Returning Home tab

 Hey, this is a little piece I put together a few weeks ago. It's a really good song,
a little difficult if your a novice player. If you need anything just email me at
nbyers33@hotmail.com.
NOTE: This is only the intro. I'll put the whole song on later.
Enjoy!

Tuning: EADGBe

e-1-------3-------5-----6-5---------------------|
B-------3-------3-----6-----6-5-3---------------|
G-----2-------3-----5---------------------------|
D---0-------2-----------------------------------|
A-----------------------------------------------|
E-----------------------------------------------|

e-1-------3-------5-----6-5-3-------------------|
B-------3-------3-----6-------------------------|
G-----2-------3-----5---------------------------|
D---0-------2-----------------------------------|
A-----------------------------------------------|
E-----------------------------------------------|

e-6-5-3-1-3-5-----------------------------------|
B-------------3-5-6-5-3-2-2---------------------|
G---------------------------3-2-----------------|
D-------------------------------3-2-------------|
A-----------------------------------3-0--3-0-S5-|
E-----------------------------------------------|
key:

s= slide
h= harmonic
b= bend
gb= ghost bend
f= fade
Tap to rate this tab
# A B C D E F G H I J K L M N O P Q R S T U V W X Y Z