Song name
# A B C D E F G H I J K L M N O P Q R S T U V W X Y Z

Misc Unsigned Bands - Misskt - Wanna Be Alone tab

-------------------------------------------------------------------------------
			     SONG NAME - Band Name
-------------------------------------------------------------------------------
Tabbed by: katie warner
Email: gimmi_ur_chocolate@hotmail.com

Tuning: standard

this is just a song i made up so theres no lyrics or solo yet. nothing spesh 
sounds pretty cool

INTRO

e|----------------------------------------------------------------------------|  x2
B|----------------------------------------------------------------------------|
G|-------0----------------0----------------0----------------0-----------------|
D|-----4------4---4-----4------4---4-----4------4---4-----4------4---4--------|
A|---2----------2-----2----------2-----0----------0-----0----------0----------|
E|-0----------------0----------------0----------------0-----------------------|

VERSE

e|----------------------------------------------------------------------------|
B|----------------------------------------------------------------------------|
G|-------0----------------0----------------0----------------0-----------------|
D|-----4------4---4-----4------4---4-----4------4---4-----4------4---4--------|
A|---2----------2-----2----------2-----0----------0-----0----------0----------|
E|-0----------------0----------------0----------------0-----------------------|

e|----------------------------------------------------------------------------|
B|----------------------------------------------------------------------------|
G|-------0----------------0----------------0----------------0-----------------|
D|-----4------4---4-----4------4---4-----4------4---4-----4------4---4--------|
A|---2----------2-----2----------2-----0----------0-----0----------2----------|
E|-3----------------3----------------3----------------3-----------------------|

e|----------------------------------------------------------------------------|
B|----------------------------------------------------------------------------|
G|-------0----------------0----------------0----------------0-----------------|
D|-----4------4---4-----4------4---4-----4------4---4-----4------4---4--------|
A|---2----------2-----2----------2-----0----------0-----0----------0----------|
E|-0----------------0----------------0----------------0-----------------------|

e|----------------------------------------------------------------------------|
B|----------------------------------------------------------------------------|
G|-------0----------------0----------------0----------------------------------|
D|-----4------4---4-----4------4---4-----4------4---4-2-----------------------|
A|---2----------2-----2----------2-----0----------0---------------------------|
E|-3----------------3----------------5----------------------------------------|

CHORUS

e|---------------------------------------------------------------------------------|
B|---------------------------------------------------------------------------------|
G|---------------------------------------------------------------------------------|
D|-5--5-x-x-7-7-7--7-2--2-2-2-2-2-2-2-x-x-5--5-x-x-5-5-5--5-2--2-2-2-2-2-2-2-------|
A|-5--5-x-x-7-7-7--7-2--2-2-2-2-2-2-2-x-x-5--5-x-x-5-5-5--5-2--2-2-2-2-2-2-2-------|
E|-3--3-x-x-5-5-5--5-0--0-0-0-0-0-0-0-x-x-3--3-x-x-5-5-5--5-0--0-0-0-0-0-0-0-------|

e|----------------------------------------------------------------------------|
B|----------------------------------------------------------------------------|
G|----------------------------------------------------------------------------|
D|----------------------------------------------------------------------------|
A|-5-5-5-5-5-5-5-5-5-5-5-5-5-5-5-5-7-7-7-7-7-7-7-7-8-7-7-7-7-7-7-7------------|
E|-3-3-3-3-3-3-3-3-3-3-3-3-3-3-3-3-5-5-5-5-5-5-5-5-6-5-5-5-5-5-5-5------------|

e|----------------------------------------------------------------------------|
B|----------------------------------------------------------------------------|
G|----------------------------------------------------------------------------|
D|-2-2-2-2-2-2-2-2-2-2-2-2-2-2-2-2-2-2-2-2-2-2-2-2-2--------------------------|
A|-2-2-2-2-2-2-2-2-2-2-2-2-2-2-2-2-2-2-2-2-2-2-2-2-2--------------------------|
E|-0-0-0-0-0-0-0-0-0-0-0-0-0-0-0-0-0-0-0-0-0-0-0-0-0--------------------------|


| /  slide up
| \  slide down
| h  hammer-on
| p  pull-off
| ~  vibrato
| +  harmonic
| x  Mute note
===============================================================================
Tap to rate this tab
# A B C D E F G H I J K L M N O P Q R S T U V W X Y Z