Song name
# A B C D E F G H I J K L M N O P Q R S T U V W X Y Z

Misc Unsigned Bands - Lumpex 75 - Zolta Skora tab

Lumpex 75 - Zolta Skora
[Lumpex 75 - Zolta Skora]

PL / [ENG]

Tuning: Standard (EADGBe)

pm - palm-muted

Na cala piosenke skladaja sie 4 chwyty:
[There are only 4 chords during whole song:]

e|---|---|---|---|
B|---|---|---|---|
G|-9-|-4-|-6-|-2-|
D|-9-|-4-|-6-|-2-|
A|-7-|-2-|-4-|-0-|
E|---|---|---|---|

A leci to mniej wiecej tak...
[It goes like this...]

Zwrotka: (cz1)
[Verse: (part1)]

e|-------------------------------------|
B|-------------------------------------|
G|-99999999-44444444-66666666-22222222-| x2
D|-99999999-44444444-66666666-22222222-|
A|-77777777-22222222-44444444-00000000-|
E|-------------------------------------|
pm ........ ........ ........ ........

Zwrotka: (cz2)
[Verse: (part2)]

e|-------------------------------------|
B|-------------------------------------|
G|-9-9-9-9--4-4-4-4--6-6-6-6--2-2-2-2--| x2
D|-9-9-9-9--4-4-4-4--6-6-6-6--2-2-2-2--|
A|-7-7-7-7--2-2-2-2--4-4-4-4--0-0-0-0--|
E|-------------------------------------|
pm .   .   .    .    .   .    .   .
 

Refren:
[Chorus:]

e|-------------------------------------|
B|-------------------------------------|
G|-99-99-99-44-44-44-66-66-66-22-22-22-| x2
D|-99-99-99-44-44-44-66-66-66-22-22-22-|
A|-77-77-77-22-22-22-44-44-44-00-00-00-|
E|-------------------------------------|

Kolejnosc:	[Order:		]
		[		]
Zwrotka (cz1)	[Verse (part1)	]
Zwrotka (cz2)	[Verse (part2)	]
Refren		[Chorus		]
Zwrotka (cz1)	[Verse (part1)	]
Zwrotka (cz2)	[Verse (part2)	]
Refren		[Chorus		]
Zwrotka (cz1)	[Verse (part1)	]
Zwrotka (cz2)	[Verse (part2)	]
Refren		[Chorus		]
Zwrotka (cz1)	[Verse (part1)	]
Zwrotka (cz2)	[Verse (part2)	]
Refren		[Chorus		]
Refren		[Chorus		]
Zwrotka (cz2)	[Verse (part2)	]
Refren...	[Chorus...	]	(fading out...)

That's all!
ENJOY!

Pharaun666pl

Band's website:
http://www.lumpex75.prv.pl/
Tap to rate this tab
# A B C D E F G H I J K L M N O P Q R S T U V W X Y Z