Guitaretab - guitar tabs
Song name
# A B C D E F G H I J K L M N O P Q R S T U V W X Y Z

Misc Unsigned Bands - The-nordic-flu - Bloodthirsty tab

Not exactly as the recordins but hey i wrote the song


E-------------------------------------------------------------------------------------|
B-------------------------------------------------------------------------------------|
G------------------5-5-5-5-5-5-5-5--7-7-7-7-7-7-7-7--5-5-5-5-5-5-5-5------------------|
D-5-5-5-5-5-5-5-5--3-3-3-3-3-3-3-3--7-7-7-7-7-7-7-7--3-3-3-3-3-3-3-3--5-5-5-5-5-5-5-5-|
A-5-5-5-5-5-5-5-5--3-3-3-3-3-3-3-3--5-5-5-5-5-5-5-5--3-3-3-3-3-3-3-3--5-5-5-5-5-5-5-5-|
E-3-3-3-3-3-3-3-3-----------------------------------------------------3-3-3-3-3-3-3-3-|

E---------------------------------------------------------------------------------------|
B---------------------------------------------------------------------------------------|
G---------------------------------------------------------------------------------------|
D-2-2-2-2-2-2-2-2--5-5-5-5-5--7-7-7-7-7--2-2-2-2-2--5--5-5-5-5-5-5-5-5--2-2-2-2-2-2-2-2-|
A-2-2-2-2-2-2-2-2--5-5-5-5-5--7-7-7-7-7--2-2-2-2-2--5--5-5-5-5-5-5-5-5--2-2-2-2-2-2-2-2-|
E-0-0-0-0-0-0-0-0--3-3-3-3-3--5-5-5-5-5--0-0-0-0-0--3--3-3-3-3-3-3-3-3--0-0-0-0-0-0-0-0-|

E-------------------------------------------------------------------------------------|
B-------------------------------------------------------------------------------------|
G------------------5-5-5-5-5-5-5-5--7-7-7-7-7-7-7-7--5-5-5-5-5-5-5-5------------------|
D-5-5-5-5-5-5-5-5--3-3-3-3-3-3-3-3--7-7-7-7-7-7-7-7--3-3-3-3-3-3-3-3--5-5-5-5-5-5-5-5-|
A-5-5-5-5-5-5-5-5--3-3-3-3-3-3-3-3--5-5-5-5-5-5-5-5--3-3-3-3-3-3-3-3--5-5-5-5-5-5-5-5-|
E-3-3-3-3-3-3-3-3-----------------------------------------------------3-3-3-3-3-3-3-3-|

E---------------------------------------------------------------------------------------|
B---------------------------------------------------------------------------------------|
G---------------------------------------------------------------------------------------|
D-2-2-2-2-2-2-2-2--5-5-5-5-5--7-7-7-7-7--2-2-2-2-2--5--5-5-5-5-5-5-5-5--2-2-2-2-2-2-2-2-|
A-2-2-2-2-2-2-2-2--5-5-5-5-5--7-7-7-7-7--2-2-2-2-2--5--5-5-5-5-5-5-5-5--2-2-2-2-2-2-2-2-|
E-0-0-0-0-0-0-0-0--3-3-3-3-3--5-5-5-5-5--0-0-0-0-0--3--3-3-3-3-3-3-3-3--0-0-0-0-0-0-0-0-|
[ Tab from: http://www.guitaretab.com/m/misc-unsigned-bands/102707.html ]
E-------------------------------------------------------------------------------------|
B-------------------------------------------------------------------------------------|
G------------------5-5-5-5-5-5-5-5--7-7-7-7-7-7-7-7--5-5-5-5-5-5-5-5------------------|
D-5-5-5-5-5-5-5-5--3-3-3-3-3-3-3-3--7-7-7-7-7-7-7-7--3-3-3-3-3-3-3-3--5-5-5-5-5-5-5-5-|
A-5-5-5-5-5-5-5-5--3-3-3-3-3-3-3-3--5-5-5-5-5-5-5-5--3-3-3-3-3-3-3-3--5-5-5-5-5-5-5-5-|
E-3-3-3-3-3-3-3-3-----------------------------------------------------3-3-3-3-3-3-3-3-|

E---------------------------------------------------------------------------------------|
B---------------------------------------------------------------------------------------|
G---------------------------------------------------------------------------------------|
D-2-2-2-2-2-2-2-2--5-5-5-5-5--7-7-7-7-7--2-2-2-2-2--5--5-5-5-5-5-5-5-5--2-2-2-2-2-2-2-2-|
A-2-2-2-2-2-2-2-2--5-5-5-5-5--7-7-7-7-7--2-2-2-2-2--5--5-5-5-5-5-5-5-5--2-2-2-2-2-2-2-2-|
E-0-0-0-0-0-0-0-0--3-3-3-3-3--5-5-5-5-5--0-0-0-0-0--3--3-3-3-3-3-3-3-3--0-0-0-0-0-0-0-0-|

E-------------------------------------------------------------------------------------|
B-------------------------------------------------------------------------------------|
G------------------5-5-5-5-5-5-5-5--7-7-7-7-7-7-7-7--5-5-5-5-5-5-5-5------------------|
D-5-5-5-5-5-5-5-5--3-3-3-3-3-3-3-3--7-7-7-7-7-7-7-7--3-3-3-3-3-3-3-3--5-5-5-5-5-5-5-5-|
A-5-5-5-5-5-5-5-5--3-3-3-3-3-3-3-3--5-5-5-5-5-5-5-5--3-3-3-3-3-3-3-3--5-5-5-5-5-5-5-5-|
E-3-3-3-3-3-3-3-3-----------------------------------------------------3-3-3-3-3-3-3-3-|

E---------------------------------------------------------------------------------------|
B---------------------------------------------------------------------------------------|
G---------------------------------------------------------------------------------------|
D-2-2-2-2-2-2-2-2--5-5-5-5-5--7-7-7-7-7--2-2-2-2-2--5--5-5-5-5-5-5-5-5--2-2-2-2-2-2-2-2-|
A-2-2-2-2-2-2-2-2--5-5-5-5-5--7-7-7-7-7--2-2-2-2-2--5--5-5-5-5-5-5-5-5--2-2-2-2-2-2-2-2-|
E-0-0-0-0-0-0-0-0--3-3-3-3-3--5-5-5-5-5--0-0-0-0-0--3--3-3-3-3-3-3-3-3--0-0-0-0-0-0-0-0-|

E-------------------------------------------------------------------------------------|
B-------------------------------------------------------------------------------------|
G------------------5-5-5-5-5-5-5-5--7-7-7-7-7-7-7-7--5-5-5-5-5-5-5-5------------------|
D-5-5-5-5-5-5-5-5--3-3-3-3-3-3-3-3--7-7-7-7-7-7-7-7--3-3-3-3-3-3-3-3--5-5-5-5-5-5-5-5-|
A-5-5-5-5-5-5-5-5--3-3-3-3-3-3-3-3--5-5-5-5-5-5-5-5--3-3-3-3-3-3-3-3--5-5-5-5-5-5-5-5-|
E-3-3-3-3-3-3-3-3-----------------------------------------------------3-3-3-3-3-3-3-3-|

E---------------------------------------------------------------------------------------|
B---------------------------------------------------------------------------------------|
G---------------------------------------------------------------------------------------|
D-2-2-2-2-2-2-2-2--5-5-5-5-5--7-7-7-7-7--2-2-2-2-2--9-9-9-9-9--10-10--------------------|
A-2-2-2-2-2-2-2-2--5-5-5-5-5--7-7-7-7-7--2-2-2-2-2--9-9-9-9-9--10-10--------------------|
E-0-0-0-0-0-0-0-0--3-3-3-3-3--5-5-5-5-5--0-0-0-0-0--7-7-7-7-7--8--8---------------------|
Related for The-nordic-flu - Bloodthirsty tab
×
The-nordic-flu - Bloodthirsty