Song name
# A B C D E F G H I J K L M N O P Q R S T U V W X Y Z

Misc Unsigned Bands - Ben Rochlin - Composition tab

#----------------------------------PLEASE NOTE---------------------------------#
#This file is the author's own work and represents their interpretation of the #
#song. You may only use this file for private study, scholarship, or research. #
#------------------------------------------------------------------------------#

COMPOSITION FOR INTERGRATED ASSIGNMENT
As recorded by Ben Rochlin


Transcribed by Ben Rochlin	
Words by n/a Music by Ben Rochlin
Arranged by Ben Rochlin

D/A
x 0 0 2 3 2	Cadd9/E
0 3 2 0 3 0	G
3 2 0 0 0 3


Gtr I (E A D G B E) - 'Untitled'
Gtr II (E A D G B E) - 'Untitled'

  Gtr II
  E S S S S E E S S S S E   E S S S S E E S S S S E
|-------------------------|-------------------------|
|-3---3---3---3---3---3---|-3---3---3---3---3---3---|
|---2-------2---0-------0-|---0-------0---0-------0-|
|-0-----0-----------------|-------------------------|
|-------------3-----3-----|-------------------------|
|-------------------------|-3-----3-----3-----3-----|


  E S S S S E E S S S S E   E S S S S E E S S S S E
|-------------------------|-------------------------|
|-3---3---3---3---3---3---|-3---3---3---3---3---3---|
|---2-------2---0-------0-|---0-------0---0-------0-|
|-0-----0-----------------|-------------------------|
|-------------3-----3-----|-------------------------|
|-------------------------|-3-----3-----3-----3-----|


  E S S S S E E S S S S E   E S S S S E E S S S S E
|-------------------------|-------------------------|
|-3---3---3---3---3---3---|-3---3---3---3---3---3---|
|---2-------2---0-------0-|---0-------0---0-------0-|
|-0-----0-----2-----2-----|-------------------------|
|-------------------------|-------------------------|
|-------------------------|-3-----3-----3-----3-----|


  E S S S S E E S S S S E   E S S S S E E S S S S E
|-------------------------|-------------------------|
|-3---3---3---3---3---3---|-3---3---3---3---3---3---|
|---2-------2---0-------0-|---0-------0---0-------0-|
|-0-----0-----------------|-------------------------|
|-------------3-----3-----|-------------------------|
|-------------------------|-3-----3-----3-----3-----|


  Gtr I
  E S S S S E E S S S S E   E S S S S E E S S S S E
|-2-2-2-2-2-2-0-0-0-0-0-0-|-3-3-3-3-3-3-3-3-3-3-3-3-|
|-3-3-3-3-3-3-3-3-3-3-3-3-|-0-0-0-0-0-0-0-0-0-0-0-0-|
|-2-2-2-2-2-2-0-0-0-0-0-0-|-0-0-0-0-0-0-0-0-0-0-0-0-|
|-0-0-0-0-0-0-2-2-2-2-2-2-|-0-0-0-0-0-0-0-0-0-0-0-0-|
|-0-0-0-0-0-0-3-3-3-3-3-3-|-2-2-2-2-2-2-2-2-2-2-2-2-|
|-------------------------|-3-3-3-3-3-3-3-3-3-3-3-3-|


  E S S S S E E S S S S E   E S S S S E E S S S S E
|-2-2-2-2-2-2-0-0-0-0-0-0-|-3-3-3-3-3-3-3-3-3-3-3-3-|
|-3-3-3-3-3-3-3-3-3-3-3-3-|-0-0-0-0-0-0-0-0-0-0-0-0-|
|-2-2-2-2-2-2-0-0-0-0-0-0-|-0-0-0-0-0-0-0-0-0-0-0-0-|
|-0-0-0-0-0-0-2-2-2-2-2-2-|-0-0-0-0-0-0-0-0-0-0-0-0-|
|-0-0-0-0-0-0-3-3-3-3-3-3-|-2-2-2-2-2-2-2-2-2-2-2-2-|
|-------------------------|-3-3-3-3-3-3-3-3-3-3-3-3-|


  E S S S S E E S S S S E   E S S S S E E S S S S E
|-2-2-2-2-2-2-0-0-0-0-0-0-|-3-3-3-3-3-3-3-3-3-3-3-3-|
|-3-3-3-3-3-3-3-3-3-3-3-3-|-0-0-0-0-0-0-0-0-0-0-0-0-|
|-2-2-2-2-2-2-0-0-0-0-0-0-|-0-0-0-0-0-0-0-0-0-0-0-0-|
|-0-0-0-0-0-0-2-2-2-2-2-2-|-0-0-0-0-0-0-0-0-0-0-0-0-|
|-0-0-0-0-0-0-3-3-3-3-3-3-|-2-2-2-2-2-2-2-2-2-2-2-2-|
|-------------------------|-3-3-3-3-3-3-3-3-3-3-3-3-|


  E S S S S E E S S S S E   E S S S S E E S S S S E
|-2-2-2-2-2-2-0-0-0-0-0-0-|-5-5-5-5-5-5-5-5-5-5-5-5-|
|-3-3-3-3-3-3-3-3-3-3-3-3-|-0-0-0-0-0-0-0-0-0-0-0-0-|
|-2-2-2-2-2-2-0-0-0-0-0-0-|-0-0-0-0-0-0-0-0-0-0-0-0-|
|-0-0-0-0-0-0-2-2-2-2-2-2-|-0-0-0-0-0-0-0-0-0-0-0-0-|
|-0-0-0-0-0-0-3-3-3-3-3-3-|-2-2-2-2-2-2-2-2-2-2-2-2-|
|-------------------------|-3-3-3-3-3-3-3-3-3-3-3-3-|


  Gtr II
  E S S S S E E S S S S E   E S S S S E E S S S S E
|-------------------------|-------------------------|
|-3---3---3---3---3---3---|-3---3---3---3---3---3---|
|---2-------2---0-------0-|---0-------0---0-------0-|
|-0-----0-----------------|-------------------------|
|-------------3-----3-----|-------------------------|
|-------------------------|-3-----3-----3-----3-----|


  E S S S S E E S S S S E   E S S S S E E S S S S E
|-------------------------|-------------------------|
|-3---3---3---3---3---3---|-3---3---3---3---3---3---|
|---2-------2---0-------0-|---0-------0---0-------0-|
|-0-----0-----------------|-------------------------|
|-------------3-----3-----|-------------------------|
|-------------------------|-3-----3-----3-----3-----|


  E S S S S E E S S S S E   E S S S S E E S S S S E
|-------------------------|-------------------------|
|-3---3---3---3---3---3---|-3---3---3---3---3---3---|
|---2-------2---0-------0-|---0-------0---0-------0-|
|-0-----0-----2-----2-----|-------------------------|
|-------------------------|-------------------------|
|-------------------------|-3-----3-----3-----3-----|


  E S S S S E E S S S S E   E S S S S E E S S S S E
|-------------------------|-------------------------|
|-3---3---3---3---3---3---|-3---3---3---3---3---3---|
|---2-------2---0-------0-|---0-------0---0-------0-|
|-0-----0-----------------|-------------------------|
|-------------3-----3-----|-------------------------|
|-------------------------|-3-----3-----3-----3-----|


  Gtr I
  E S S S S E E S S S S E   E S S S S E E S S S S E
|-2-2-2-2-2-2-0-0-0-0-0-0-|-3-3-3-3-3-3-3-3-3-3-3-3-|
|-3-3-3-3-3-3-3-3-3-3-3-3-|-0-0-0-0-0-0-0-0-0-0-0-0-|
|-2-2-2-2-2-2-0-0-0-0-0-0-|-0-0-0-0-0-0-0-0-0-0-0-0-|
|-0-0-0-0-0-0-2-2-2-2-2-2-|-0-0-0-0-0-0-0-0-0-0-0-0-|
|-0-0-0-0-0-0-3-3-3-3-3-3-|-2-2-2-2-2-2-2-2-2-2-2-2-|
|-------------------------|-3-3-3-3-3-3-3-3-3-3-3-3-|


  E S S S S E E S S S S E   E S S S S E E S S S S E
|-2-2-2-2-2-2-0-0-0-0-0-0-|-3-3-3-3-3-3-3-3-3-3-3-3-|
|-3-3-3-3-3-3-3-3-3-3-3-3-|-0-0-0-0-0-0-0-0-0-0-0-0-|
|-2-2-2-2-2-2-0-0-0-0-0-0-|-0-0-0-0-0-0-0-0-0-0-0-0-|
|-0-0-0-0-0-0-2-2-2-2-2-2-|-0-0-0-0-0-0-0-0-0-0-0-0-|
|-0-0-0-0-0-0-3-3-3-3-3-3-|-2-2-2-2-2-2-2-2-2-2-2-2-|
|-------------------------|-3-3-3-3-3-3-3-3-3-3-3-3-|


  E S S S S E E S S S S E   E S S S S E E S S S S E
|-2-2-2-2-2-2-0-0-0-0-0-0-|-3-3-3-3-3-3-3-3-3-3-3-3-|
|-3-3-3-3-3-3-3-3-3-3-3-3-|-0-0-0-0-0-0-0-0-0-0-0-0-|
|-2-2-2-2-2-2-0-0-0-0-0-0-|-0-0-0-0-0-0-0-0-0-0-0-0-|
|-0-0-0-0-0-0-2-2-2-2-2-2-|-0-0-0-0-0-0-0-0-0-0-0-0-|
|-0-0-0-0-0-0-3-3-3-3-3-3-|-2-2-2-2-2-2-2-2-2-2-2-2-|
|-------------------------|-3-3-3-3-3-3-3-3-3-3-3-3-|


  E S S S S E E S S S S E   E S S S S E E S S S S E
|-2-2-2-2-2-2-0-0-0-0-0-0-|-3-3-3-3-3-3-3-3-3-3-3-3-|
|-3-3-3-3-3-3-3-3-3-3-3-3-|-0-0-0-0-0-0-0-0-0-0-0-0-|
|-2-2-2-2-2-2-0-0-0-0-0-0-|-0-0-0-0-0-0-0-0-0-0-0-0-|
|-0-0-0-0-0-0-2-2-2-2-2-2-|-0-0-0-0-0-0-0-0-0-0-0-0-|
|-0-0-0-0-0-0-3-3-3-3-3-3-|-2-2-2-2-2-2-2-2-2-2-2-2-|
|-------------------------|-3-3-3-3-3-3-3-3-3-3-3-3-|


  Gtr II
  E E   E   Q   E   E   E   +E  E   E   Q   E   E   E
|-----------2-----------3-|-(3)---------2-------------|
|-------3-------3---------|-----3-----------3---------|
|---2---------------2-----|---------2-----------2-----|
|-0-----------------------|-------------------------0-|
|-------------------------|---------------------------|
|-------------------------|---------------------------|
|
| Gtr I
| E S S S S E E S S S S E    E  S S S S E E S S S S E
|-2-2-2-2-2-2-2-2-2-2-2-2-|--2--2-2-2-2-2-2-2-2-2-2-2-|
|-3-3-3-3-3-3-3-3-3-3-3-3-|--3--3-3-3-3-3-3-3-3-3-3-3-|
|-2-2-2-2-2-2-2-2-2-2-2-2-|--2--2-2-2-2-2-2-2-2-2-2-2-|
|-0-0-0-0-0-0-0-0-0-0-0-0-|--0--0-0-0-0-0-0-0-0-0-0-0-|
|-0-0-0-0-0-0-0-0-0-0-0-0-|--0--0-0-0-0-0-0-0-0-0-0-0-|
|-------------------------|---------------------------|


  E E   E   Q   E   E   E   +E  E   Q     H
|-----------------------0-|-(0)-----------------------|
|-----------3-------3-----|-----3---------------------|
|-------0-------0---------|---------0-----------------|
|---2---------------------|---------------------------|
|-3-----------------------|---------------------------|
|-------------------------|---------------------------|
|
| E S S S S E E S S S S E    E  S S S S E E S S S S E
|-0-0-0-0-0-0-0-0-0-0-0-0-|--0--0-0-0-0-0-0-0-0-0-0-0-|
|-3-3-3-3-3-3-3-3-3-3-3-3-|--3--3-3-3-3-3-3-3-3-3-3-3-|
|-0-0-0-0-0-0-0-0-0-0-0-0-|--0--0-0-0-0-0-0-0-0-0-0-0-|
|-2-2-2-2-2-2-2-2-2-2-2-2-|--2--2-2-2-2-2-2-2-2-2-2-2-|
|-3-3-3-3-3-3-3-3-3-3-3-3-|--3--3-3-3-3-3-3-3-3-3-3-3-|
|-------------------------|---------------------------|


  E E   E   Q   E   E   E   +E  E   E   Q   E   E   E
|-----------------------3-|-(3)---------3-------------|
|-------------------------|-----0-----------0---------|
|-----------0-------0-----|---------0-----------0-----|
|-------0-------0---------|---------------------------|
|---2---------------------|---------------------------|
|-3-----------------------|---------------------------|
|
| E S S S S E E S S S S E    E  S S S S E E S S S S E
|-3-3-3-3-3-3-3-3-3-3-3-3-|--3--3-3-3-3-3-3-3-3-3-3-3-|
|-0-0-0-0-0-0-0-0-0-0-0-0-|--0--0-0-0-0-0-0-0-0-0-0-0-|
|-0-0-0-0-0-0-0-0-0-0-0-0-|--0--0-0-0-0-0-0-0-0-0-0-0-|
|-0-0-0-0-0-0-0-0-0-0-0-0-|--0--0-0-0-0-0-0-0-0-0-0-0-|
|-2-2-2-2-2-2-2-2-2-2-2-2-|--2--2-2-2-2-2-2-2-2-2-2-2-|
|-3-3-3-3-3-3-3-3-3-3-3-3-|--3--3-3-3-3-3-3-3-3-3-3-3-|


  E E   E   Q   E   E   E   +E  H..
|-----------------------3-|-(3)-------------------------|
|-------------------------|-----------------------------|
|-----------0-------0-----|-----------------------------|
|-------0-------0---------|-----------------------------|
|---2---------------------|-----------------------------|
|-3-----------------------|-----------------------------|
|
| E S S S S E E S S S S E    E  S   S S S E E S S S S E
|-3-3-3-3-3-3-3-3-3-3-3-3-|--3--3---3-3-3-3-3-3-3-3-3-3-|
|-0-0-0-0-0-0-0-0-0-0-0-0-|--0--0---0-0-0-0-0-0-0-0-0-0-|
|-0-0-0-0-0-0-0-0-0-0-0-0-|--0--0---0-0-0-0-0-0-0-0-0-0-|
|-0-0-0-0-0-0-0-0-0-0-0-0-|--0--0---0-0-0-0-0-0-0-0-0-0-|
|-2-2-2-2-2-2-2-2-2-2-2-2-|--2--2---2-2-2-2-2-2-2-2-2-2-|
|-3-3-3-3-3-3-3-3-3-3-3-3-|--3--3---3-3-3-3-3-3-3-3-3-3-|


  E E   E   Q   E   E   E   +E  E   E   Q   E   E   E
|-----------2-----------3-|-(3)---------2-------------|
|-------3-------3---------|-----3-----------3---------|
|---2---------------2-----|---------2-----------2-----|
|-0-----------------------|-------------------------0-|
|-------------------------|---------------------------|
|-------------------------|---------------------------|
|
| E S S S S E E S S S S E    E  S S S S E E S S S S E
|-2-2-2-2-2-2-2-2-2-2-2-2-|--2--2-2-2-2-2-2-2-2-2-2-2-|
|-3-3-3-3-3-3-3-3-3-3-3-3-|--3--3-3-3-3-3-3-3-3-3-3-3-|
|-2-2-2-2-2-2-2-2-2-2-2-2-|--2--2-2-2-2-2-2-2-2-2-2-2-|
|-0-0-0-0-0-0-0-0-0-0-0-0-|--0--0-0-0-0-0-0-0-0-0-0-0-|
|-0-0-0-0-0-0-0-0-0-0-0-0-|--0--0-0-0-0-0-0-0-0-0-0-0-|
|-------------------------|---------------------------|


  E E   E   Q   E   E   E   +E  E   Q     H
|-----------------------0-|-(0)-----------------------|
|-----------3-------3-----|-----3---------------------|
|-------0-------0---------|---------0-----------------|
|---2---------------------|---------------------------|
|-3-----------------------|---------------------------|
|-------------------------|---------------------------|
|
| E S S S S E E S S S S E    E  S S S S E E S S S S E
|-0-0-0-0-0-0-0-0-0-0-0-0-|--0--0-0-0-0-0-0-0-0-0-0-0-|
|-3-3-3-3-3-3-3-3-3-3-3-3-|--3--3-3-3-3-3-3-3-3-3-3-3-|
|-0-0-0-0-0-0-0-0-0-0-0-0-|--0--0-0-0-0-0-0-0-0-0-0-0-|
|-2-2-2-2-2-2-2-2-2-2-2-2-|--2--2-2-2-2-2-2-2-2-2-2-2-|
|-3-3-3-3-3-3-3-3-3-3-3-3-|--3--3-3-3-3-3-3-3-3-3-3-3-|
|-------------------------|---------------------------|


  E E   E   Q   E   E   E   +E  E   E   Q   E   E   E
|-----------------------3-|-(3)---------3-------------|
|-------------------------|-----0-----------0---------|
|-----------0-------0-----|---------0-----------0-----|
|-------0-------0---------|---------------------------|
|---2---------------------|---------------------------|
|-3-----------------------|---------------------------|
|
| E S S S S E E S S S S E    E  S S S S E E S S S S E
|-3-3-3-3-3-3-3-3-3-3-3-3-|--3--3-3-3-3-3-3-3-3-3-3-3-|
|-0-0-0-0-0-0-0-0-0-0-0-0-|--0--0-0-0-0-0-0-0-0-0-0-0-|
|-0-0-0-0-0-0-0-0-0-0-0-0-|--0--0-0-0-0-0-0-0-0-0-0-0-|
|-0-0-0-0-0-0-0-0-0-0-0-0-|--0--0-0-0-0-0-0-0-0-0-0-0-|
|-2-2-2-2-2-2-2-2-2-2-2-2-|--2--2-2-2-2-2-2-2-2-2-2-2-|
|-3-3-3-3-3-3-3-3-3-3-3-3-|--3--3-3-3-3-3-3-3-3-3-3-3-|


  E E   E   Q   E   E   E   +E  H..
|-----------------------3-|-(3)-------------------------|
|-------------------------|-----------------------------|
|-----------0-------0-----|-----------------------------|
|-------0-------0---------|-----------------------------|
|---2---------------------|-----------------------------|
|-3-----------------------|-----------------------------|
|
| E S S S S E E S S S S E    E  S   S S S E E S S S S E
|-3-3-3-3-3-3-3-3-3-3-3-3-|--3--3---3-3-3-3-3-3-3-3-3-3-|
|-0-0-0-0-0-0-0-0-0-0-0-0-|--0--0---0-0-0-0-0-0-0-0-0-0-|
|-0-0-0-0-0-0-0-0-0-0-0-0-|--0--0---0-0-0-0-0-0-0-0-0-0-|
|-0-0-0-0-0-0-0-0-0-0-0-0-|--0--0---0-0-0-0-0-0-0-0-0-0-|
|-2-2-2-2-2-2-2-2-2-2-2-2-|--2--2---2-2-2-2-2-2-2-2-2-2-|
|-3-3-3-3-3-3-3-3-3-3-3-3-|--3--3---3-3-3-3-3-3-3-3-3-3-|


  Gtr I
  E S S S S E E S S S S E   E S S S S E E S S S S E
|-2-2-2-2-2-2-0-0-0-0-0-0-|-3-3-3-3-3-3-3-3-3-3-3-3-|
|-3-3-3-3-3-3-3-3-3-3-3-3-|-0-0-0-0-0-0-0-0-0-0-0-0-|
|-2-2-2-2-2-2-0-0-0-0-0-0-|-0-0-0-0-0-0-0-0-0-0-0-0-|
|-0-0-0-0-0-0-2-2-2-2-2-2-|-0-0-0-0-0-0-0-0-0-0-0-0-|
|-0-0-0-0-0-0-3-3-3-3-3-3-|-2-2-2-2-2-2-2-2-2-2-2-2-|
|-------------------------|-3-3-3-3-3-3-3-3-3-3-3-3-|


  E S S S S E E S S S S E   E S S S S E E S S S S E
|-2-2-2-2-2-2-0-0-0-0-0-0-|-3-3-3-3-3-3-3-3-3-3-3-3-|
|-3-3-3-3-3-3-3-3-3-3-3-3-|-0-0-0-0-0-0-0-0-0-0-0-0-|
|-2-2-2-2-2-2-0-0-0-0-0-0-|-0-0-0-0-0-0-0-0-0-0-0-0-|
|-0-0-0-0-0-0-2-2-2-2-2-2-|-0-0-0-0-0-0-0-0-0-0-0-0-|
|-0-0-0-0-0-0-3-3-3-3-3-3-|-2-2-2-2-2-2-2-2-2-2-2-2-|
|-------------------------|-3-3-3-3-3-3-3-3-3-3-3-3-|


  E S S S S E E S S S S E   E S S S S E E S S S S E
|-2-2-2-2-2-2-0-0-0-0-0-0-|-3-3-3-3-3-3-3-3-3-3-3-3-|
|-3-3-3-3-3-3-3-3-3-3-3-3-|-0-0-0-0-0-0-0-0-0-0-0-0-|
|-2-2-2-2-2-2-0-0-0-0-0-0-|-0-0-0-0-0-0-0-0-0-0-0-0-|
|-0-0-0-0-0-0-2-2-2-2-2-2-|-0-0-0-0-0-0-0-0-0-0-0-0-|
|-0-0-0-0-0-0-3-3-3-3-3-3-|-2-2-2-2-2-2-2-2-2-2-2-2-|
|-------------------------|-3-3-3-3-3-3-3-3-3-3-3-3-|


  E S S S S E E S S S S E   E S S S S E E S S S S E
|-2-2-2-2-2-2-0-0-0-0-0-0-|-3-3-3-3-3-3-3-3-3-3-3-3-|
|-3-3-3-3-3-3-3-3-3-3-3-3-|-0-0-0-0-0-0-0-0-0-0-0-0-|
|-2-2-2-2-2-2-0-0-0-0-0-0-|-0-0-0-0-0-0-0-0-0-0-0-0-|
|-0-0-0-0-0-0-2-2-2-2-2-2-|-0-0-0-0-0-0-0-0-0-0-0-0-|
|-0-0-0-0-0-0-3-3-3-3-3-3-|-2-2-2-2-2-2-2-2-2-2-2-2-|
|-------------------------|-3-3-3-3-3-3-3-3-3-3-3-3-|


  E S S S S E E S S S S E   E S S S S E E S S S S E
|-------------------------|-------------------------|
|-3---3---3---3---3---3---|-3---3---3---3---3---3---|
|---2-------2---0-------0-|---0-------0---0-------0-|
|-0-----0-----------------|-------------------------|
|-------------3-----3-----|-------------------------|
|-------------------------|-3-----3-----3-----3-----|


  E S S S S E E S S S S E   E S S S S E E S S S S E
|-------------------------|-------------------------|
|-3---3---3---3---3---3---|-3---3---3---3---3---3---|
|---2-------2---0-------0-|---0-------0---0-------0-|
|-0-----0-----------------|-------------------------|
|-------------3-----3-----|-------------------------|
|-------------------------|-3-----3-----3-----3-----|


  E S S S S E E S S S S E   E S S S S E E S S S S E
|-------------------------|-------------------------|
|-3---3---3---3---3---3---|-3---3---3---3---3---3---|
|---2-------2---0-------0-|---0-------0---0-------0-|
|-0-----0-----2-----2-----|-------------------------|
|-------------------------|-------------------------|
|-------------------------|-3-----3-----3-----3-----|


  E S S S S E E S S S S E   E S S S S E E S S S S E
|-------------------------|-------------------------|
|-3---3---3---3---3---3---|-3---3---3---3---3---3---|
|---2-------2---0-------0-|---0-------0---0-------0-|
|-0-----0-----------------|-------------------------|
|-------------3-----3-----|-------------------------|
|-------------------------|-3-----3-----3-----3-----|


  E E E E H      +W
|---------3----|-(3)--------*|-|
|---------0----|-(0)--------*|-|
|-------0-0----|-(0)--------*|-|
|-----0---0----|-(0)--------*|-|
|---2-----2----|-(2)--------*|-|
|-3-------3----|-(3)--------*|-|



Duration Legend
---------------
W - whole; H - half; Q - quarter; E - 8th; S - 16th; T - 32nd; X - 64th; a - acciaccatura
+ - note tied to previous; . - note dotted; .. - note double dotted
Uncapitalized letters represent notes that are staccato (1/2 duration)
Irregular groupings are notated above the duration line
Duration letters will always appear directly above the note/fret number it represents the
duration for.  Duration letters with no fret number below them represent rests.  Multi-
bar rests are notated in the form Wxn, where n is the number of bars to rest for.  Low
melody durations appear below the staff

Tablature Legend
----------------
 h   - hammer-on
 p   - pull-off
 b   - bend
 pb  - pre-bend
 r   - bend release (if no number after the r, then release immediately)
 /\  - slide into or out of (from/to "nowhere")
 s   - legato slide
 S   - shift slide
 - natural harmonic
[n]  - artificial harmonic
n(n) - tapped harmonic
 ~   - vibrato
 tr  - trill
 T   - tap
 TP  - trem. picking
 PM  - palm muting
\n/  - tremolo bar dip; n = amount to dip
 \n  - tremolo bar down
 n/  - tremolo bar up
/n\  - tremolo bar inverted dip
 =   - hold bend; also acts as connecting device for hammers/pulls
 <> - volume swell (louder/softer)
 x   - on rhythm slash represents muted slash
 o   - on rhythm slash represents single note slash

Misc Legend
-----------
 |  - bar
||  - double bar
||o - repeat start
o|| - repeat end
*|  - double bar (ending)
 :  - bar (freetime)
 $  - Segno
 &  - Coda
Tempo markers -  = BPM(8/16=s8/s16), where s8 = swing 8ths, s16 = swing 16ths


** Generated using Power Tab Editor by Brad Larsen: The Official Power Tab Web Site
Tap to rate this tab
# A B C D E F G H I J K L M N O P Q R S T U V W X Y Z