Song name
# A B C D E F G H I J K L M N O P Q R S T U V W X Y Z

Misc Unsigned Bands - 7 Days From Yesterday - Sweet So Cold Angel tab

i got this from taking back sunday so anyways avaible to sue really. Here's my newest 
it's called 'Sweet So Cold Angel' by 7 days from yesterday


  Sweet So Cold, Angel Burning

E|---------------------------|
B|---------------------------|
G|------0--------------------|
A|----------2----------------|
D|-3-------------------------|
E|---------------------------|

In my lungs, girl i'm dying

E|---------------------------|
B|---------------------------|
G|------0--------------------|
A|----------2----------------|
D|-2-------------------------|
E|---------------------------|

it's okay, that's what you plan to say

E|---------------------------|
B|---------------------------|
G|------2--------------------|
A|----------2----------------|
D|-0-------------------------|
E|---------------------------|


 Fsharp                        G(nek2)
but you know my last words will soon fade away

 G(nek2)
Sweet so cold, girl driving me insane

 C
Silly me, thought a paper cut was even hurt

 Am
until i met you. That's when my eyes burned...


will you get what you wanted all along

E|-0--0--0---0----0---0------0----0----|
B|-3--3--3---3----3---3------3----3----|
G|-0--0--0---0----0---0------0----0----|
A|-2--2--2---2----2---2------2----0----|
D|-3--3--3---3----3---3------3----2----|
E|-0--0--0---0----0---0------0----3----|


will you do what you thought of, 

E|-0-0---0--0----0---3-------3--|
B|-3-3---3--3----3---0-------0--|
G|-0-0---0--0----0---0-------0--|
A|-0-0---0--0----0---2-------2--|
D|-2-2---2--2----2---3-------3--|
E|-3-3---3--3----3---0-------0--|

you've been waiting for too long


E|-0-0---0--0----0---3-------3--|
B|-3-3---3--3----3---0-------0--|
G|-0-0---0--0----0---0-------0--|
A|-0-0---0--0----0---2-------2--|
D|-2-2---2--2----2---3-------3--|
E|-3-3---3--3----3---0-------0--|

you've been thinking way too hard


E|-0-0---0--0----0---3-------3--|
B|-3-3---3--3----3---0-------0--|
G|-0-0---0--0----0---0-------0--|
A|-0-0---0--0----0---2-------2--|
D|-2-2---2--2----2---3-------3--|
E|-3-3---3--3----3---0-------0--|




still in process, plz give feedback, other finished song soon to be posted. Titled Lost 
Ways. till then, ta ta
Tap to rate this tab
# A B C D E F G H I J K L M N O P Q R S T U V W X Y Z