Song name
# A B C D E F G H I J K L M N O P Q R S T U V W X Y Z

Misc Unsigned Bands - Man With Robot Hands - I Cant Name You tab

Hey this is my first tab
Man With Robot Hands is Andrew De Torres from the scene aesthetic by himself, and this 
is featured on his myspace.
Myself and my guitar teacher tabbed this out
pretty sure these are 98% right.. so enjoy =]

Intro
-------------------------------------------------------------------|
-0-------0-------1-------1h3-----0------0-------3------0-----------|
----0------0--------0---------------0-----0--------0-----0---------|
------0---------------0h2-------------0--------------0-------------|
-----------------3-------------------------------------------------|
-0-------------------------------3--------------3------------------| x3

--------------------8--7--5--3-------|
-0------0----------------------------|
----0-----0---------9--7--5--4-------|
------0------------------------------|
-------------------------------------|
-0------------------8--7--5--3-------|


First Verse
-------------------------------------------------------------------|
-0-------0-------1-------1h3-----0------0-------3------0-----------|
----0------0--------0---------------0-----0--------0-----0---------|
------0---------------0h2-------------0--------------0-------------|
-----------------3-------------------------------------------------|
-0-------------------------------3--------------3------------------| x3

------------------------------------|
-0-------0-------1-------1h3-----0--|
----0------0--------0---------------|
------0---------------0h2-----------|
-----------------3------------------|
-0-------------------------------3--|


Repeat Intro


Chorus
---3>---3>---3>---2>--------3>---3>---3>-----|
---3>---3>---3>---3>--------3>---3>---3>-----|
---0>---0>---0>---2>--------0>---0>---0>-----|
---2>---2>---0>---0>--------2>---2>---0>-----|
---3>---2>---2>---x---------3>---2>---2>-----|
---x----x----3>---x---------x----x----3>-----|    x2

Last time end with instead of second group
---3>---3---3---3-------|
---3>---3---3---3-------|
---0>---0---0---0-------|
---2>---0---2---0-------|
---3>---2---0---2-------|
---x----x---x---3-------|


Post-Chorus
-------------------------------------------------------------------|
-0-------0-------1-------1h3-----0------0-------3------0-----------|
----0------0--------0---------------0-----0--------0-----0---------|
------0---------------0h2-------------0--------------0-------------|
-----------------3-------------------------------------------------|
-0-------------------------------3--------------3------------------|

------------------------------------|
-0-------0-------1-------1h3-----0--|
----0------0--------0---------------|
------0---------------0h2-----------|
-----------------3------------------|
-0-------------------------------3--|

Second Verse
---3>---3>---3>------------|
---3>---3>---3>------------|
---0>---0>---0>------------|
---2>---2>---0>------------|
---2>---3>---2>------------|
---x----x----3>------------|   x4

Bridge
---3>---3>---3>----             ------3-------3--------3---------|
---3>---3>---3>----             -----3-------3--------3----------|
---0>---0>---0>----             ----0-------0--------0-----------|
---2>---0>---2>----             ---2-------0--------3------------|
---0>---2>---3>----             --0-------2--------2-------------|
---x----x----x-----    x3       ---------------------------------|

Then Chorus Again
x2

Then Outro Is The Same As The Intro.


Thats about it. Enjoy.

~Tabbed by Michael Sacco
Tap to rate this tab
# A B C D E F G H I J K L M N O P Q R S T U V W X Y Z