Song name
# A B C D E F G H I J K L M N O P Q R S T U V W X Y Z

Misc Unsigned Bands - Green Hippo Philosophy - Interlude tab

E|-x--x--x--x--x--------|
B|-10-10-10-10-13/12----|
G|-x--x--x--x--x--------|
D|-11-11-11-11-11-------|
A|-9--9--9--9--9--------|
E|----------------------|

E|-x--x--x--x--x--x--------------------|
B|-8--8--8--8--10-10-------------------|
G|-x--x--x--x--x--x--------------------|
D|-9--9--9--9--9--9--------------------|
A|-7--7--7--7--7--7--------------------|
E--------------------------------------|

E|-x--x--x--x--x---------|
B|-6--6--6--6--8---------|
G|-x--x--x--x--x---------|
D|-7--7--7--7--7---------|
A|-5--5--5--5--5---------|
E------------------------|


Go to myspace.com/greenhippophilosophy/ if your cool like that k thanks
Tap to rate this tab
# A B C D E F G H I J K L M N O P Q R S T U V W X Y Z