Song name
# A B C D E F G H I J K L M N O P Q R S T U V W X Y Z

Misc Unsigned Bands - Wraith - Dead Once tab

Please Comment, alot of my friends say it sounds good, but yeah let me know

Tuning: Standard
e|---------------------------------------------------------------|
B|---------------------------------------------------------------|
G|---------------------------------------------------------------|
D|---------------------------------------------------------------|  x2
A|---------------------------------------------------------------|
E|--0----0----0----0-------0-0-0-0-0-0--7-7-7-7--6-6-6-6--5-5-5-5|

e|---------------------------------------------------------------|
B|---------------------------------------------------------------|
G|---------------------------------------------------------------|
D|-----------------------------------------------------------4-3-|
A|-----------------------------------------------------------4-3-|
E|-0-0-0-0-7-7-7-7-6-6-6-6-5-6-6-6-5-6-6-6-5-6-6-6-5-6-6-6-5-4-3-|

e|----------------------20-20-20-20--17-17-17-17-19-19-19-19-19-0|
B|---------------------------------------------------------------|
G|---------------------------------------------------------------|
D|-2-1-0---------------------------------------------------------|
A|-2-1-0---------------------------------------------------------|
E|-2-1-0------3-3-2-1^-------------------------------------------|

Note: the first 2 bars can be played on the A and E strings - you choose!


| /  slide up
| \  slide down
| h  hammer-on
| p  pull-off
| ~  vibrato
| +  harmonic
| x  Mute note
  ^  Let it ring
Tap to rate this tab
# A B C D E F G H I J K L M N O P Q R S T U V W X Y Z