Song name
# A B C D E F G H I J K L M N O P Q R S T U V W X Y Z

Misc Unsigned Bands - Crash - Shootin For Desire tab

Help us improve GuitareTab! Take a short survey!
Shootin For Desire
(all of the song is slightly distorted) 
INTRO

Lead Guitar: Distorted (w/ wah for solo)
Rhythm Guitar: Distorted (slightly) till after solo

e-1----1----------3-3-2-3p2-2-2--|
b-1----1-1-1-1-1--3-3-3-3---3-3--|
g-0h2--2-0-0-2-0--0-0-2-2---2-2--|1x
d--------3-3-3-3--0-0-0----------|
a--------3-3-3-3--x-x------------|
E-----------------3-3------------|

for the 2nd time

e-1----1----------3-3-2-3p2-2---2-----------|
b-1----1-1-1-1-1--3-3-3-3---3---3-----------|
g-0h2--2-0-0-2-0--0-0-2-2---2---2-----------|
d--------3-3-3-3--0-0-0---------------------|
a--------3-3-3-3--x-x-----------------------|
E-----------------3-3-----------------------|

VERSE

e-1----1----------3-3-2-3p2-2-2--|
b-1----1-1-1-1-1--3-3-3-3---3-3--|
g-0h2--2-0-0-2-0--0-0-2-2---2-2--|4x
d--------3-3-3-3--0-0-0----------|
a--------3-3-3-3--x-x------------|
E-----------------3-3------------|

CHORUS

e------------------------------------3-3-2---|
b------------------------------------3-3-3---|
g-7-7--7---7--5-5--5---5--3-3-3-5----0-0-2---|3x
d-7-7--7---7--5-5--5---5--3-3-3-5--x-0-0-----|
a-5-5--5---5--3-3--3---3--1-1-1-3--x-x-x-----|
E------------------------------------3-3-----|

For the 4th time

do this

e-----------------------------------------------|
b-----------------------------------------------|
g-7-7--7---7--5-5--5---5--3-3-3-5---------------|
d-7-7--7---7--5-5--5---5--3-3-3-5---------------|
a-5-5--5---5--3-3--3---3--1-1-1-3---------------|
E-----------------------------------------------|

VERSE

e-1----1----------3-3-2-3p2-2-2--|
b-1----1-1-1-1-1--3-3-3-3---3-3--|
g-0h2--2-0-0-2-0--0-0-2-2---2-2--|4x
d--------3-3-3-3--0-0-0-0--------|
a--------3-3-3-3--x-x------------|
E-----------------3-3------------|

CHORUS

e------------------------------------3-2---|
b------------------------------------3-3---|
g-7-7--7---7--5-5--5---5--3-3-3-5----0-2---|3x
d-7-7--7---7--5-5--5---5--3-3-3-5--x-0-----|
a-5-5--5---5--3-3--3---3--1-1-1-3--x-x-----|
E------------------------------------3-----|

do this (this time though it counts as the bridge)

e---------------------------------------------------------------------|
b---------------------------------------------------------------------|
g-7-7--7---7--5-5--5---5--3-3-3-5-----3-5~~--3-5~~--3-5~~--3-5~~~~~~~-|
d-7-7--7---7--5-5--5---5--3-3-3-5-----3-5~~--3-5~~--3-5~~--3-5~~~~~~~-|
a-5-5--5---5--3-3--3---3--1-1-1-3-----1-0----1-0----1-0----1-0--------|
E---------------------------------------------------------------------|

SOLO (distorted w/ Wah)

                ^
e----------------------------------|-------------------|-------------------=
b-14b15~-14b15~--------------------|-------------------|-14b15-14b15-------=
g----------------------------------|--------------/17~-|-------------15-13-=
d---------------15-15p14p12-12-12~-|-15~-15b16-13\-----|-------------------=
a----------------------------------|-------------------|-------------------=
E----------------------------------|-------------------|-------------------=

=|-----------------|------------------------------------------------------=
=|-----------------|-----------------8b10-pb10r---------------------------=
=|-13b15-----------|-5-8p7p5~-7~~~~~------------8p7p5---------------------=
=|-------15-15~~~~-|----------------------------------7-7~~~--------------=
=|-----------------|-----------------------------------------7-9p7-9------=
=|-----------------|-------------------------------------------------7~~~-=

=-------------------------------|
=-15-18b20-pb20-pb20-18-18b20~~-|
=-------------------------------|
=-------------------------------|
=-------------------------------|
=-------------------------------|

REPEAT:

VERSE 
rhythm: distorted
lead: distorted w/ wah

      (rhythm)                (lead)               
e-1----1----------3-3-|--------------------|-1----1----------3-3-|=
b-1----1-1-1-1-1--3-3-|-14b15--------------|-1----1-1-1-1-1--3-3-|=
g-0h2--2-0-0-2-0--0-0-|-------15-13--------|-0h2--2-0-0-2-0--0-0-|=
d--------3-3-3-3--0-0-|------------15~~~~--|--------3-3-3-3--0-0-|=
a--------3-3-3-3--x-x-|--------------------|--------3-3-3-3--x-x-|=
E-----------------3-3-|--------------------|-----------------3-3-|=

=---------------------------|-1----1----------3-3-|-20b22-pb22-pb22-=
=-18b20~--------------------|-1----1-1-1-1-1--3-3-|-----------------=
=--------17b18-15-----------|-0h2--2-0-0-2-0--0-0-|-----------------=
=-----------------17-15-17~-|--------3-3-3-3--0-0-|-----------------=
=---------------------------|--------3-3-3-3--x-x-|-----------------=
=---------------------------|-----------------3-3-|-----------------=

=-20-pb22~~~~~~~~~-|
=------------------|
=------------------|
=------------------|
=------------------|
=------------------|

REPEAT:
VERSE(

OUTRO
(clean)
e-1----1----------3-3-2-3p2-2-2--|
b-1----1-1-1-1-1--3-3-3-3---3-3--|
g-0h2--2-0-0-2-0--0-0-2-2---2-2--|1x
d--------3-3-3-3--0-0-0----------|
a--------3-3-3-3--x-x------------|
E-----------------3-3------------|

for the 2nd time

e-1----1----------3-3-2-3p2-2---2-----------|
b-1----1-1-1-1-1--3-3-3-3---3---3-----------|
g-0h2--2-0-0-2-0--0-0-2-2---2---2-----------|
d--------3-3-3-3--0-0-0---------------------|
a--------3-3-3-3--x-x-----------------------|
E-----------------3-3-----------------------|
Related for Crash - Shootin For Desire tab