Song name
# A B C D E F G H I J K L M N O P Q R S T U V W X Y Z

Misc Unsigned Bands - Estimate Overdose - Snap The Elastic Band tab

Help us improve GuitareTab! Take a short survey!
  Snap The Elastic Band - Estimate Overdose
-------------------------------------------------------------------
Tabbed by: Jat
Email: eyes_on_johelle@hotmaill.com

Tuning: Normal

Verse:
e|---------------------------------------------------------------------|
B|---------------------------------------------------------------------|
G|---------------------------------------------------------------------|
D|-----0-0-2-----0-0-2-----0-0-2-----2-2-0-----------------------------|x2
A|-3-3-----------------0-0---------------------------------------------|
E|-----------3-3-----------------1-1-----------------------------------|

e|---------------------------------------------------------------------|
B|---------------------------------------------------------------------|
G|---------------------------------------------------------------------|
D|-----0-2-----0-2-----0-2-----2-0-------------------------------------|x2
A|-3-3-------------0-0-------------------------------------------------|
E|--------3-3--------------1-1-----------------------------------------|


Chorus:
e|------------------------------------------------------------------|
B|------------------------------------------------------------------|
G|------------------------------------------------------------------|
D|-77-0-999-0-------------------------------------------------------|x3
A|-55-0-777-0-999/777-0---------------------------------------------|
E|------------777/555-0---------------------------------------------|
End of Chorus


Verse:
e|---------------------------------------------------------------------|
B|---------------------------------------------------------------------|
G|---------------------------------------------------------------------|
D|-----0-0-2-----0-0-2-----0-0-2-----2-2-0-----------------------------|x2
A|-3-3-----------------0-0---------------------------------------------|
E|-----------3-3-----------------1-1-----------------------------------|

e|---------------------------------------------------------------------|
B|---------------------------------------------------------------------|
G|---------------------------------------------------------------------|
D|-----0-2-----0-2-----0-2-----2-0-------------------------------------|x2
A|-3-3-------------0-0-------------------------------------------------|
E|--------3-3--------------1-1-----------------------------------------|



A/N - You would have to listen to the song to understand the rythm.
Related for Estimate Overdose - Snap The Elastic Band tab