Song name
# A B C D E F G H I J K L M N O P Q R S T U V W X Y Z

Misc Unsigned Bands - Margerine - Sadgasm tab

This is for all you grunge puppets who saw the episode of the simpsons...


Riff 1
e---------------------------------------------------------------------------|
B---------------------------------------------------------------------------|
G-----------------5-----5-----5--2-----2-----2--3-----3---------------------|
D--3-----3-----3--5-----5-----5--2-----2-----2--3-----3--3------------------|
A--3-----3-----3--3-3-3-3-3-3-3--0-0-0-0-0-0-0--1-1-1-1--3------------------|
E--1-1-1-1-1-1-1-----------------------------------------1------------------|
pm   . .   . .      . .   . .      . .   . .      . .

Riff 2
e----------------------------------------------------------------------------|
B----------------------------------------------------------------------------|
G-7-7-7-7-7-7-7-7--10-10-10-10-10-10-10-10--2-2-2-2-2-2-2-2--3-3-3-3-3-3-3-3-|
D-7-7-7-7-7-7-7-7--10-10-10-10-10-10-10-10--2-2-2-2-2-2-2-2--3-3-3-3-3-3-3-3-|
A-5-5-5-5-5-5-5-5--8--8--8--8--8--8--8--8---0-0-0-0-0-0-0-0--1-1-1-1-1-1-1-1-|
E----------------------------------------------------------------------------|

Riff 3
e----------------------------------------------------------------------------|
B----------------------------------------------------------------------------|
G-----------------2-2-2-2--3-3-3-3-------------------------------------------|
D--3-----3-----3--2-2-2-2--3-3-3-3-------------------------------------------|
A--3-----3-----3--0-0-0-0--1-1-1-1-------------------------------------------|
E--1-1-1-1-1-1-1-------------------------------------------------------------|
pm   . .   . .
Tap to rate this tab
# A B C D E F G H I J K L M N O P Q R S T U V W X Y Z